Oops, an error
Loading. Please wait.

Surrender Tab

version 3
version 3

Interactive

88,245 views 111 this week
18 commentsread comments
1 2 3 4 5
accurate
x 53
add to favorites
launch autoscroll
font size
0
reset
how to read this tab
guitar tuner
Autoscroll
slow
fast
+/-
esc
set tempo
stop
Help us to improve Ultimate-Guitar.com Take our survey!
×
Author
Song: Surrender
Band: Cheap Trick
Album: Sex, America, Cheap Trick 
Tuning: Standard (EADGBe)
Tabbed by: Jake Something (sloppyjoe24)
                                                                     

[Intro]

e|----------------------------|
B|----------------------------|
G|----------------------------|
D|--6-6-6-6-6-6-6-6-8~--------|x2
A|--6-6-6-6-6-6-6-6-8~--------|
E|--4-4-4-4-4-4-4-4-6~--------|
                                                                     

[Verse]

e|-------------------------------------------------------------------|
B|-------------------------------------------------------------------|
G|---------------------------------------------------4~-X--4-4-4-4-4-|
D|--4-4-6-4-4-4-6-4----------------------------------4~-X--4-4-4-4-4-|
A|--2-2-2-2-2-2-2-2-4-4-6-4-4-4-6-4-2-2-4-2-2-2-4-2--2~-X--2-2-2-2-2-|
E|------------------2-2-2-2-2-2-2-2-0-0-0-0-0-0-0-0------------------|
    . . . . . . . . . . . . . . . . . . . . . . . .

e|-------------------------------------------------------------------|
B|-------------------------------------------------------------------|
G|---------------------------------------------------4~-X--4-4-4-----|
D|--4-4-6-4-4-4-6-4----------------------------------4~-X--4-4-4-----|
A|--2-2-2-2-2-2-2-2-4-4-6-4-4-4-6-4-2-2-4-2-2-2-4-2--2~-X--2-2-2-----|
E|------------------2-2-2-2-2-2-2-2-0-0-0-0-0-0-0-0------------------|
    . . . . . . . . . . . . . . . . . . . . . . . .
                                                                       

[Pre-Chorus]

e|-------------------------------------------------|
B|-------------------------------------------------|
G|-----------------------------------4~-4~-4-4-4---|
D|-----------------------------------4~-4~-4-4-4---|x3
A|--2-2-4-2-2-2-4-2-4-4-6-4-4-4-6-4--2~-2~-2-2-2---|
E|--0-0-0-0-0-0-0-0-2-2-2-2-2-2-2-2----------------|
    . . . . . . . . . . . . . . . .
                                                                       

[Chorus]

e|---------------------------------------|---------------------|
B|--4--4-4------4--4-4------4--4-4---4---|---------------------|
G|--4--4-4------4--4-4------4--4-4---4---|---------------------|
D|--4--4-4------4--4-4------4--4-4---4---|---------------------|
A|--2--2-2------X--X-X------X--X-X---X---|--2-2-4-2-2-2-4-2----|
E|--------------4--4-4------2--2-2---2---|--0-0-0-0-0-0-0-0----|
                                            . . . . . . . .

e|---------------------------------------|
B|--4--4-4------4--4-4------4--4-4---4---|
G|--4--4-4------4--4-4------4--4-4---4---|
D|--4--4-4------4--4-4------4--4-4---4---|
A|--2--2-2------X--X-X------X--X-X---X---|
E|--------------4--4-4------2--2-2---2---|
                                            

e|---------------------|  |-------------------|
B|---------------------|  |-------------------|
G|---------------------|  |-------------------|
D|------------------2~-|x2|-------------------|x2
A|--2-2-4-2-2-2-2h4----|  |--2-2-4-2-2-2-4-2--|
E|--0-0-0-0-0-0--------|  |--0-0-0-0-0-0-0-0--|
    . . . . . .              . . . . . . . .
                                                                     

[Interlude]

e|----------------------------|
B|----------------------------|
G|--2-2-2-2-2-2-2-2-4~--------|
D|--2-2-2-2-2-2-2-2-4~--------|x2
A|--0-0-0-0-0-0-0-0-2~--------|
E|----------------------------|
                                                                      

[Verse]

[Pre-Chorus]

[Chorus]

[Interlude]

[Verse 2]

e|-------------------------------------------------------------|
B|-------------------------------------------------------------|
G|-------------------------------------------------------------|
D|--5-5-7-5-5-5-7-5----------------------------------5-5-7-5~--|x2
A|--3-3-3-3-3-3-3-3-5-5-7-5-5-5-7-5-3-3-5-3-3-3-5-3--3-3-3-3~--|
E|------------------3-3-3-3-3-3-3-3-1-1-1-1-1-1-1-1------------|
    . . . . . . . . . . . . . . . . . . . . . . . .


[Pre-Chorus 2]

e|------------------------------------------------------------------|
B|------------------------------------------------------------------|
G|------------------------------------------------------------------|
D|----------------------------------5-5-7-5-5-5-7-5-5-5-7-5-5-5-7-5-|
A|--3-3-5-3-3-3-5-3-5-5-7-5-5-5-7-5-3-3-3-3-3-3-3-3-3-3-3-3-3-3-3-3-|
E|--1-1-1-1-1-1-1-1-3-3-3-3-3-3-3-3---------------------------------|
    . . . . . . . . . . . . . . . . . . . . . . . . . . . . . . . .

e|------------------------------------------------------------------|
B|------------------------------------------------------------------|
G|------------------------------------------------------------------|
D|----------------------------------5-5-7-5-5-5-5-7-5-5-5-7-5-5-7-5-|
A|--3-3-5-3-3-3-5-3-5-5-7-5-5-5-7-5-3-3-3-3-3-3-3-3-3-3-3-3-3-3-3-3-|
E|--1-1-1-1-1-1-1-1-3-3-3-3-3-3-3-3---------------------------------|
    . . . . . . . . . . . . . . . . . . . . . . . . . . . . . . . .    


[Chorus 2]

e|---------------------------------------|--------------------|
B|--5--5-5------5--5-5------5--5-5---5---|--------------------|
G|--5--5-5------5--5-5------5--5-5---5---|--------------------|
D|--5--5-5------5--5-5------5--5-5---5---|--------------------|
A|--3--3-3------X--X-X------X--X-X---X---|--3-3-5-3-3-3-5-3---|
E|--------------5--5-5------3--3-3---3---|--1-1-1-1-1-1-1-1---|
                                            . . . . . . . .

e|---------------------------------------|
B|--5--5-5------5--5-5------5--5-5---5---|
G|--5--5-5------5--5-5------5--5-5---5---|
D|--5--5-5------5--5-5------5--5-5---5---|
A|--3--3-3------X--X-X------X--X-X---X---|
E|--------------5--5-5------3--3-3---3---|

e|----------------------|
B|----------------------|
G|----------------------|
D|----------------------|x4
A|--3-3-3-3-3-3-3-3-3---|
E|--1-1-1-1-1-1-1-1-1---|
    . . . . . . . . .
                                                                    

[Post Chorus 2]

e|-----------------------------------------------|
B|-----------6-X-6-6-----------8-8-8-8-8-8-8-8---|
G|--5-X-5-5--5-X-5-5--5-X-5-5--7-7-7-7-7-7-7-7---|
D|--5-X-5-5--3-X-3-3--5-X-5-5--5-5-5-5-5-5-5-5---|x2
A|--3-X-3-3-----------3-X-3-3--------------------|
E|-----------------------------------------------|
                                                                      

[Chorus 2]

e|---------------------------------------|--------------------|
B|--5--5-5------5--5-5------5--5-5---5---|--------------------|
G|--5--5-5------5--5-5------5--5-5---5---|--------------------|
D|--5--5-5------5--5-5------5--5-5---5---|--------------------|x7(fade)
A|--3--3-3------X--X-X------X--X-X---X---|--3-3-5-3-3-3-5-3---|
E|--------------5--5-5------3--3-3---3---|--1-1-1-1-1-1-1-1---|
                                            . . . . . . . .

                                                                       


****************************************************************************

h   hammer on                   
p   pull off                    
^   bend                               
r   release
~   let it ring                         
/   slide up                             
\   slide down                            
.   palm mute                              
+   harmonic                                
v   vibrato

****************************************************************************
Suggest correction
comments
print report bad tab
18 comments total. Showing first comments.
0 reply
Metallicaman66 10 wrote on April 25 2007, 07:42 pm

confusing

0 reply
Portuguese_boy 204 wrote on May 14 2007, 02:11 pm

Very good.

+1 reply
MVP_44 10 wrote on May 27 2007, 08:29 pm

good, but verse was off

guest
You may want to rate the tab now too:
select rating
Please do not post tabs as comments. Select "correction" instead!