Oops, an error
Loading. Please wait.

Surrender Tab

version 4
version 4

Interactive

8,749 views 3 this week
no commentswrite comment
1 2 3 4 5
worth learning
x 4
add to favorites
launch autoscroll
font size
0
reset
how to read this tab
guitar tuner
Autoscroll
slow
fast
+/-
esc
set tempo
stop
Help us to improve Ultimate-Guitar.com Take our survey!
×
Contributor

 This is my first tab so plz give me some tips

 Intro-First measure is drums only
                                                          1st ending
 E|---------------------|-------------------|------------|-------------|
 B|---------------------|-------------------|------------|-------------|
 G|:--------------------|-------------------|------------|------------:|
 D|---------------------|-------------------|------------|-------------|
 A|:--------------------|-------------------|-8----------|-(8)--------:|
 E|-4444-4-44-4-44-4444-|-4-44-444444444444-|-6----------|-(6)---------|

   2nd ending   Verse
 E------------|-------------------|------------------|--------------------|
 B------------|-------------------|------------------|--------------------|
 G------------|:-----6------------|------------------|--------------------|
 D------------|--4-4-6-4-4-4-4----|------------------|--------------------|
 A-(8)--------|:-2-2-2-2-2-2-2-0--|-4-4-4-4-4-4-4----|-2-2-2-2-2-2-2-2----|
 E-(6)--------|-------------------|-2-2-2-2-2-2-2-0--|-0-0-0-0-0-0-0-0----|
              PM. . . . . . . .    . . . . . . . .    . . . . . . . .

 E-------------------|-----------------|-----------------|------------------|
 B-4-----------------|-----------------|-----------------|------------------|
 G-4----4-(4)-4-4-2--|-----------------|-----------------|------------------|
 D-4----4-(4)-4-4-2--|-4-4-4-4-4-4-4---|-----------------|------------------|
 A-2--2-2-(2)-2-2-2--|-2-2-2-2-2-2-2---|-4-4-4-4-4-4-4-2-|-2-2-2-2-2-2-2-2--|
 E-------------------|---------------0-|-2-2-2-2-2-2-2-0-|-0-0-0-0-0-0-0-0--|
                       PM. . . . .       . . . . . . . .   . . . . . . .

 E-------------------|------------------|------------------|-----------------|
 B-4-----------------|------------------|------------------|-4---------------|
 G-4----4-(4)-4-4----|------------------|------------------|-4-4---4---------|
 D-4----4-(4)-4-4----|------------------|------------------|-4-4---4---------|
 A-2--2-2-(2)-2-2-2--|-2-2-2-2-2-2-2-2--|-4-4-4-4-4-4-4-0--|-2-2-2-2-------2-|
 E-------------------|-0-0-0-0-0-0-0-0--|-2-2-2-2-2-2-2-0--|-----------------|
                     PM. . . . . . . .    . . . . . . . .

 E-------------------|------------------|-----------------|-----------------|
 B-------------------|------------------|-----------------|-4---------------|
 G-------------------|------------------|-----------------|-4----4------4---|
 D-4-4-4-4-(4)-4-4-4-|------------------|-----------------|-4----4------4---|
 A-2-2-2-2-(2)-2-2-2-|-2-2-2-2-2-2-2-22-|-4-4-4-4-4-4-4-0-|-2--2-2------2---|
 E-------------------|-0-0-0-0-0-0-0-00-|-2-2-2-2-2-2-2-0-|-----------------|
                     PM. . . . . . . ..   . . . . . . . .

                    Chorus
 E-----------------|---------------|---------------|---------------|
 B-4---------------|-4-------4-----|-4-------4-----|-4--4-4-4------|
 G-4---4-(4)--4-4--|-4----4--4-----|-4----4--4-----|-4--4-4-4------|
 D-4---4-(4)--4-4--|-4----4--4-----|-4----4--4-----|-4--4-4-4------|
 A-2---2-(2)--2-2--|-2----2--2-----|-X----X--X-----|-X--X-X-X------|
 E-----------------|---------------|-4----4--4-----|-2--2-2-2---0--|


 E-----------------|-----------|--------------|-----------------|
 B-----------------|-4-----4---|-4-----4------|-----------------|
 G-----------------|-4---4-4---|-4---4-4------|-----------------|
 D-----------------|-4---4-4---|-4---4-4------|---------------2-|
 A-2-2-2-2-2-2-2-2-|-2---2-2---|-X---X-X------|-2-2-4-2-2-4-2---|
 E-0-0-0-0-0-0-0-0-|-----------|-2---2-2---0--|-0-0-0-0-0-0-0---|
       PM. . . . .                            PM. . . . . . .

 E-----------------|-----------------|-----------------|
 B-----------------|-----------------|-----------------|
 G-----------------|-----------------|-----------------|
 D---------------2-|---------------2-|-----------------|
 A-2-2-4-2-2-4-2---|-2-2-4-2-2-4-2---|-2-2-4-2-2-2-2-0-|
 E-0-0-0-0-0-0-0---|-0-0-0-0-0-0-0---|-0-0-0-0-0-0-0---|
 PM. . . . . . .     . . . . . . .

   Interlude
 E--------------------|--------------------|------------|-----11-------|
 B--------------------|--------------------|------------|-----12-------|
 G--------------------|--------------------|----------X-|--X--11---X-X-|
 D--------------------|--------------------|-4--------X-|--X-------X-X-|
 A-0-000000-0-00-0-00-|-0-000000-0-00-0-00-|-2----------|--------------|
 E--------------------|--------------------|------------|--------------|

                                                          1st ending
 E--------------------|--------------------|------------|-----------------|
 B--------------------|--------------------|------------|-----------------|
 G--------------------|--------------------|------------|----------------:|
 D--------------------|--------------------|-4----------|-(4)-------------|
 A-0000-0-000000-0-00-|-00000000-0-00-0-00-|-2----------|-(2)------------:|
 E--------------------|--------------------|------------|--------------0--|

   2nd ending
 E-------------|--------------------|
 B-------------|--------------------|
 G-------------|--------------------|
 D-4-----------|-(4)----------------|
 A-2-----------|-(2)----------------|
 E-------------|------------------0-|

   Verse
 E-----------------|-----------------|-----------------|-----------------|
 B-----------------|-----------------|-----------------|-----------------|
 G-----7-------7---|-----------------|-----------------|-----7-------7---|
 D-5-5-7---5-5-7---|-----------------|-----------------|-5-5-7-5-5-5-7-5-|
 A-3-3-3-3-3-3-3---|-5-5-7---5-5-7---|-3-3-5---3-3-3-0-|-3-3-3-3-3-3-3-3-|
 E---------------0-|-3-3-3-3-3-3-3-0-|-1-1-1-1-1-1-1-0-|-----------------|
 PM. . . . . . . .   . . . . . . . .   . . . . . . . .   . . . . . . . .

 E------------------|-----------------|-----------------|-----------------|
 B------------------|-----------------|-----------------|-----------------|
 G-----7-------7----|-----------------|-----------------|-----7-------7---|
 D-5-5-7---5-5-7----|-----7-------7---|---------------0-|-5-5-7---5-5-7---|
 A-3-3-3-3-3-3-3-00-|-5-5-7---5-5-7---|-3-3-5-3-3-3-5-0-|-3-3-3-3-3-3-3---|
 E---------------00-|-3-3-3-3-3-3-3-0-|-1-1-1-1-1-1-1---|---------------0-|
 PM. . . . . . . ..   . . . . . . . .   . . . . . . . .   . . . . . . . .

   Pre-chorus
 E-----------------|-----------------|-----------------|------------------|
 B-----------------|-----------------|-----------------|------------------|
 G-----------------|-----------------|-----7-------7---|-----7-5---5-5----|
 D-----------------|-----------------|-5-5-7-5-5-5-7-5-|-5-5-7-5---5-5----|
 A-3-3-3-3-3-3-3-3-|-5-5-5-5-5-5-5-5-|-3-3-3-3-3-3-3-3-|-3-3-3-3---3-3-00-|
 E-1-1-1-1-1-1-1-1-|-3-3-3-3-3-3-3-3-|-----------------|---------------00-|
 PM. . . . . . . .   . . . . . . . .   . . . . . . . .   . . .         ..

 E------------------|-----------------|-----------------|-----------------|
 B------------------|-----------------|-----------------|-5---------3-----|
 G------------------|-----------------|-5-----5---------|-5---------3-3-4-|
 D------------------|---------------3-|-5-5-5-5---5-5-5-|-5-5-5-5-5-3-3-4-|
 A-3-3-5---3-3-3-00-|-5-5-7-5-5-5-7-3-|-3-3-3-3---3-3-3-|-3-3-3-3-3-3-3-3-|
 E-1-1-1-1-1-1-1-00-|-3-3-3-3-3-3-3---|-----------------|-----------------|
 PM. . . . . . . ..   . . . . . . . .   . . . .   . . .   . . . . . . . .

   Chorus
 E-------------|-------------|-------------|-----------------|--------------|
 B-5-----5-----|-5-----5-----|-5-----5-----|-----------------|-5-----5------|
 G-5---5-5-----|-5---5-5-----|-5---5-5-----|---------------0-|-5---5-5------|
 D-5---5-5-----|-5---5-5-----|-5---5-5-----|-3-3-3-3-3-3-3-0-|-5---5-5------|
 A-3---3-3-----|-X---X-X-----|-X---X-X-----|-3-3-3-3-3-3-3-0-|-3---3-3------|
 E-------------|-5---5-5-----|-3---3-3---0-|-1-1-1-1-1-1-1---|--------------|
                                           PM. . . . . . . .

 E-------------|-------------|-----------------|-----------------|
 B-5-----5-----|-5-----5-----|-----------------|-----------------|
 G-5---5-5-----|-5---5-5-----|-----------------|-----------------|
 D-5---5-5-----|-5---5-5-----|-3-3-3-3-3-3-3-3-|-3-3-3-3-3-3-3-3-|
 A-X---X-X-----|-X---X-X-----|-3-3-3-3-3-3-3-3-|-3-3-3-3-3-3-3-3-|
 E-5---5-5-----|-3---3-3---0-|-1-1-1-1-1-1-1-1-|-1-1-1-1-1-1-1-1-|
                             PM. . . . . . . .   . . . . . . . .

 E----------------|-----------------|
 B----------------|-----------------|
 G----------------|---------------0-|
 D-3--3-3-3-3-3-3-|-3-3-3-3-3-3-3-0-|
 A-3--3-3-3-3-3-3-|-3-3-3-3-3-3-3-0-|
 E-1--1-1-1-1-1-1-|-1-1-1-1-1-1-1---|
 PM.  . . . . . .   . . . . . . . .

   Bridge
 E-0---33-3----|-3---11-3----|-3---00-3----|------------------|
 B-1---11-1----|-1---11-1----|-1---11-1----|------------------|
 G:0---00-0----|-2---22-2----|-0---00-0----|-----------------:|
 D-2---22-2----|-3---33-3----|-2---22-2----|---5-5-5-5-5-5-0--|
 A:3---33-3----|-------------|-3---33-3----|---5-5-5-5-5-5-0-:|
 E-------------|-------------|-------------|---3-3-3-3-3-3----|
                                             PM. . . . . . .

  Outro-Chorus
 E-------------|-------------|-------------|------------------|
 B-5-----5-----|-5-----5-----|-5-----5-----|------------------|
 G-5---5-5-----|-5---5-5-----|-5---5-5-----|---------------0-:|
 D-5---5-5-----|-5---5-5-----|-5---5-5-----|-3-3-3-3-3-3-3-0--|
 A-3---3-3-----|-X---X-X-----|-X---X-X-----|-3-3-3-3-3-3-3-0-:|
 E-------------|-5---5-5-----|-3---3-3---0-|-1-1-1-1-1-1-1----|
                                           PM. . . . . . . .
Play until the end

 My teacher taught me this he might have gotten it from a book but i dont know. I think 
right on. -Joe
comments
print report bad tab
I want to post or [tab]
guest
You may want to rate the tab now too:
select rating
Please do not post tabs as comments. Select "correction" instead!