Oops, an error
Loading. Please wait.

That 70S Show Theme Bass Tab

version 1
version 1

Whole song

Interactive

3,291 views 9 this week
1 commentread comment
1 2 3 4 5
worth learning
x 3
add to favorites
launch autoscroll
font size
0
reset
guitar tuner
Tab Pro tools
  • play this tab
  • loop segment
  • change instrument
  • show fretboard
  • metronome
×
Best way to learn
"That 70s Show Theme"
Autoscroll
slow
fast
+/-
esc
set tempo
stop
Contributor
Difficulty
intermediate
Intro
G------------------------|
D------------------------|
A------------------------|
E-0-1-3-5-7-9-10-10-1210-| (x3)

Verse 1
G---------------|
D---------------|
A---------------|
E-0-1-3-5-3-1-0-| (x4)

Post Verse 1
G----------------------------|
D-5-4-2--5-4-2--5-4-2--5-4-2-|
A----------------------------|
E----------------------------|

Verse 2 Intro
G------------------------|
D------------------------|
A------------------------|
E-0-1-3-5-7-9-10-10-1210-| (x2)

Verse 2
G---------------|
D---------------|
A---------------|
E-0-1-3-5-3-1-0-| (x3)

Post Verse 2
G---------------------|
D-5-4-2--5-4-2--5-4-2-|
A---------------------|
E---------------------|

Interlude
G-----------------------------------------------|---------------------------------|
D-----------------------------------------------|-5-4-2-1-5-4-2-1-55-5-5-0-55-5-5-|
A-----------------------------------------------|---------------------------------|
E-0-1-3-5-7-9-10-10-1210-0-1-3-5-7-9-10-10-1210-|---------------------------------|
comments
We did not receive enough feedback on this tab! Please rate:
print report bad tab
1 2 3 4 5
1 comment total.
+1 reply
IArePlayGuitar wrote on April 16 2007, 05:32 pm

very innacurate.

I want to post or [tab]
guest
You may want to rate the tab now too:
select rating
Please do not post tabs as comments. Select "correction" instead!