Oops, an error
Loading. Please wait.

That 70S Show Theme Tab

version 2
version 2

Whole song

Interactive

16,125 views 36 this week
2 commentsread comments
1 2 3 4 5
x 12
add to favorites
launch autoscroll
font size
0
reset
how to read this tab
guitar tuner
Autoscroll
slow
fast
+/-
esc
set tempo
stop
Help us to improve Ultimate-Guitar.com Take our survey!
×
Difficulty
novice
That 70's Show Theme-Cheap Trick
here is a better way to play it than the other tab i did before.

Intro
|-2--------------------------------------------------------------|
|-3-x3-----------------------------------------------------------|
|-2--------------------------------------------------------------|
|--------------------------------------5---5--5------------------|
|--------------0--1--2-------0---------3---3--5------------------|
|------0--1--2---------------------------------------------------|




Verse...Hangin out,down the street!....

|----------------------------------------------------------------|
|----------------------------------------------------------------|
|----------------------------------------------------------------|
|----------------------------------5---5--3----------------------|
|----------0--1--2-------0---------3---3--3----------------------|
|--0--1--2-------------------------------------------------------|


courus...not a thing to do.......
|----------------------------------------------------------------|
|----------------------------------------------------------------|
|----------------------------------------------------------------|
|-5--4--2--------------------------------------------------------|
|-5--4--2-x3-----------------------------------------------------|
|-3--2--0--------------------------------------------------------|



Bridge....were still rockin!......
|----------------------------------------------------------------|
|----------------------------------------------------------------|
|----------------------------------------------------------------|
|-11--9--8--6--------4--9--4-------------------------------------|
|--x--x--x--x--x3----4--9--4---x1--------------------------------|
|--9--7--6--4--------2--7--2-------------------------------------|


Right that is pretty much the tab for that version....eccept the solo which i will do when i can be arsed.

here is the verse and bridge for the melow version of the song.

verse
|-----2-----3---2-------------3-------3---3---------------------|
|---3---3-----3---3--------1----1-------1---1-------------------|
|-2-------2---------2----0---------0----------0-----------------|
|---------------------------------------------------------------|
|---------------------------------------------------------------|
|---------------------------------------------------------------|


Bridge (after second courus)
|---------------------------------------------------------------|
|----0-4-0----0-4-0-----0-4-0---0-4-0---------------------------|
|-4-------------------------------------------------------------|
|---------------------------------------------------------------|
|-----------2---------------------------------------------------|
|--------------------4--------3---------------------------------|

(the intro,courus and bridge are the same as the other version)

have fun playin it ....it is a legendary tune!

any questions email me tom-fox@hotmail.co.uk
Suggest correction
comments
print report bad tab
2 comments total.
0 reply
soul_rocker 15 Mar 08, 2006 07:45 PM

doesnt sound right on the chorus..its not the right chords i dont think, but the 012 012 part sounds ok

0 reply
byrnec37 10 Aug 25, 2014 05:19 PM

Clearly wrong.

guest
You may want to rate the tab now too:
select rating
Wanna post a correction for this tab? Suggest correction