Oops, an error
Loading. Please wait.

The Ballad Of Tv Violence Tab

version 2
version 2

Whole song

  • Contains full song including key change and outro.
7 views 1 this week
no commentswrite comment
1 2 3 4 5
3 more votes to show rating
add to favorites
launch autoscroll
font size
0
reset
how to read this tab
guitar tuner
Autoscroll
slow
fast
+/-
esc
set tempo
stop
Help us to improve Ultimate-Guitar.com Take our survey!
×
Author
Difficulty
intermediate
About this tab version
Contains full song including key change and outro. Was this info helpful? Yes No
Tuning: EADGBE

Intro:
e|----------------------------------------------------------------------|
B|-----------5------------5-----------5---7----5---7---5----------------|
G|-----------5------------5-----------5---7----5---7---5----------------|
D|-7--7-7--7-5-7---7-7--7-5-7--7-7--7-5-7-7--7-5-7-7-7-5-0--------------|
A|-0--0-0--0---0---0-0--0---0--0-0--0---0----0---0---0---7--------------|
E|----------------------------------------------------------------------|

Figure #1
"I need a knife..."
e|----------------------------------------------------------------------|
B|----------------------------------------------------------------------|
G|-------7b8-7-5---5-----------7b8-7-5---5-7----------------------------|
D|-5-6-7---------7---7--5-7------------7--------------------------------|
A|-5-6-7----------------------------------------------------------------|
E|----------------------------------------------------------------------|


e|----------------------------------------------------------------------|
B|----------------------5-5-5-----5-5-5---------------------------------|
G|--7b8-7-5---5---------5-5-5-----5-5-5---------------------------------|
D|----------7---7-5-7---5-5-5--7--5-5-5--7------------------------------|
A|-----------------------------0---------0------------------------------|
E|----------------------------------------------------------------------|

Figure #2
"I need some rope..."                               "I just don't know..."
e|---------------------------------------------------------------------|
B|---------------------------------------------------------------------|
G|--------9b10-9-7---7-9--9b10-9-7---7-9--9b10-9-7---7-9---------------|
D|-7-8-9-----------9---------------9---------------9------9-7----------|
A|-7-8-9------------------------------------------------------9-8-7-5--|
E|---------------------------------------------------------------------|

Figure #3
e|---------------------------------------------------------------------|
B|-----5-5-5-5--7-5-7-5--5-5-5-5--7-5-7-5------------------------------|
G|-4v--5-5-5-5--7-5-7-5--5-5-5-5--7-5-7-5--4v-4-3v---------------------|
D|-----5-5-5-5--7-5-7-5--5-5-5-5--7-5-7-5------------------------------|
A|---------------------------------------------------------------------|
E|---------------------------------------------------------------------|

Figure #4
"I was the only boy..."

F#sus4              C#7no5/F           A#b5/E 
e|---------------------------------------------------------------------|
B|-----2-------2---------2-------2---------3-----3-----3-----3---------|
G|---4---4---4---4-----4---4---4---4-----3-----3-----3-----3-----------|
D|-4-------4---------3-------3---------2-----2-----2-----2-------------|
A|---------------------------------------------------------------------|
E|---------------------------------------------------------------------|


| v   Vibrato
| b   Bend
Suggest correction
Give kudos to tab author, rate the tab!
1 2 3 4 5
comments
print report bad tab
guest
You may want to rate the tab now too:
select rating
Wanna post a correction for this tab? Suggest correction