Oops, an error
Loading. Please wait.

When I Wake Up Tomorrow chords

1,586 views 9 this week
no commentswrite comment
1 2 3 4 5
x 9
add to favorites
×
Save as Personal and add changes to this tab that will be seen only by you. Learn more ›
×
You can save this tab as Personal to edit and correct it or add notes. All changes will be seen only by you. Learn more »
launch autoscroll
font size
0
reset
transpose
0
reset
simplify chords
display chords
guitar tuner
edit
Autoscroll
slow
fast
+/-
esc
set tempo
stop
Strumming
There is no strumming pattern for this song yet. and get +5 IQ
-------------------------------------------------------------------------------
                       When I Wake Up Tomorrow-Cheap Trick
-------------------------------------------------------------------------------
Tabbed by:Nick V.
Email:BlindTerry333@gmail.com

Second single from 2016's "Bang, Zoom, Crazy...Hello!"

[Intro]
       A
e|---------------------------------------------------------------------------|
B|---------------------------------------------------------------------------| 
G|-2-2-2-2-2-----------------------------------------------------------------| 
D|-2-2-2-2-2-----------------------------------------------------------------| 
A|-0-0-0-0-0-----------------------------------------------------------------| 
E|---------------------------------------------------------------------------| 

     Fno5/A
e|---------------------------------------------------------------------------|
B|---------------------------------------------------------------------------| 
G|-2-2-2-2-2-----------------------------------------------------------------| 
D|-3-3-3-3-3-----------------------------------------------------------------| 
A|-0-0-0-0-0-----------------------------------------------------------------| 
E|---------------------------------------------------------------------------| 

    F#mno5/A
e|---------------------------------------------------------------------------|
B|---------------------------------------------------------------------------| 
G|-2-2-2-2-2-----------------------------------------------------------------| 
D|-4-4-4-4-4-----------------------------------------------------------------| 
A|-0-0-0-0-0-----------------------------------------------------------------| 
E|---------------------------------------------------------------------------| 

    Gsus2no5/A
e|---------------------------------------------------------------------------|
B|---------------------------------------------------------------------------| 
G|-2-2-2-2-2-----------------------------------------------------------------| 
D|-5-5-5-5-5-----------------------------------------------------------------| 
A|-0-0-0-0-0-----------------------------------------------------------------| 
E|---------------------------------------------------------------------------| 


[Intro]

A  Fno5/A  F#mno5/A  Gsus2no5/A  (x2)

F Em A (x2)


[Verse]


F                             Em                  A
I never thought that it would be like this before
F                  Em             A
I never wanted just one kiss for sure
F                      Em        A
Well maybe I didn't understand, all you wanted was a one night stand
F                    Em                        Dsus2  Am
But I never thought I'd beg like this for more


[Chorus]


Cadd2               G                         Dsus2   Am
These days I wonder how I'm gonna make it tomorrow
Cadd2             G                           Am
In these ways I'll have to beg if I want to borrow
      Em
My love
Am
Here I'm on my knees
F             Em                   A
Please, be here when I wake up tomorrow


A  Fno5/A  F#mno5/A  Gsus2no5/A



[Verse]


F              Em        A
I never felt like this before
F                Em         A
My love is flowing out for sure
F                  Em
Your lips upon my skin
A
Come out and let me in, now
F                 Em                     Dsus2 Am
Never thought I'd beg like this for more


[Chorus]


Cadd2               G                         Dsus2    Am
These days I wonder how I'm gonna make it tomorrow
Cadd2               G                       Dsus2  Am
These days I pray there's no need for sorrow
Cadd2             G                        Dsus2    Am
These days I wonder what will come of tomorrow
Cadd2                 G                         Am
In these ways I'll have to beg if I want to borrow
      Em
Your love
Am
Here I'm on my knees
F             Em                  A
Please, be here when I wake up tomorrow

            
            
Suggest correction
Creating personal tab
Creating personal tab
You can edit any tab online and save it as your Personal.

You can edit, replace or remove any tab part or add personal notes – all changes will be seen only by you.

Personal tabs can be accessed anytime from any device, even offline.
Learn more »
comments
print report bad tab
guest
You may want to rate the tab now too:
select rating
Wanna post a correction for this tab? Suggest correction