Oops, an error
Loading. Please wait.

You Let A Lotta People Down tab

22 views 1 this week
no commentswrite comment
1 2 3 4 5
3 more votes to show rating
add to favorites
×
Save as Personal and add changes to this tab that will be seen only by you. Learn more ›
×
You can save this tab as Personal to edit and correct it or add notes. All changes will be seen only by you. Learn more »
launch autoscroll
font size
0
reset
how to read this tab
guitar tuner
edit
Autoscroll
slow
fast
+/-
esc
set tempo
stop
[Intro]

Em  Em7  Em6  A

G  A  Em


[Verse]

   C  Em  Am       A      Am  Em        G5  F#5 Em
e|----------------------------------------------0-----------------------------|
B|-----------------2h3p2--------------2---------0-----------------------------|
G|-----------------2------------------2---------0-----------------------------|
D|-----------------2------------------2---------2-----------------------------|
A|-----------------0------------------0---5--4--2-----------------------------|
E|-----------0-2-3--------------0-2-3-----3--2--0-----------------------------|


       C                  Em      Am
So how does it feel to stand so close
             A       Asus4  A
And never understand?
          Am               Em
How do you feel when you mean so much
                          A     G5 F#5 Em
But you don't even give a damn?


[Chorus]


     Em                   Em7
You let a lotta people down
       Em6             A
You let a lotta people down
G                   D       
You've got a lot to learn
              Em   A
You can't do that
      Am                          
Just who the hell do you think you are?
              Em
You can't do that


[Verse]

          C                 Em
Well you rode upon a wicked fence
         Em7            Em6
Could've fallen either way
          Am
But you've chosen other losers
Em                 A   G5 F#5 Em
In your sick sick game


[Chorus]

     Em                   Em7
You let a lotta people down
       Em6             A
You let a lotta people down
G                   D      
You've got a lot to learn
              Em   A
You can't do that
      Am                          
Just who the hell do you think you are?
              Em
You can't do that


[Bridge]

C                      A
Just how can you keep going
C                      A
With all that's goin' on
C                      A
The best thing about knowing you
    G                   A
Is knowin' when you're gone
A
You let a lotta people down


Em   A  Em  A  Asus4  A


C                         Em
Your conscience has ghost writers
Am                       A  Asus4  A
Your dirty hands are clean
Am                           Em
Flesh and blood and life and death
              A
No it's no mystery


[Chorus]

     Em                   Em7
You let a lotta people down
       Em6             A
You let a lotta people down
G                   D      
You've got a lot to learn
              Em   A
You can't do that
      Am                          
Just who the hell do you think you are?
              Em
You can't do that
N.C.
You can't do that


[Outro]

          (until fade)
e|---------------------------------------------------------------------------|
B|---------------------------------------------------------------------------|
G|---------------------------------------------------------------------------|
D|---2-2---------------------------------------------------------------------|
A|-5-2-2---------------------------------------------------------------------|
E|-3-0-0---------------------------------------------------------------------|

           G5      E5   
'Cause you ain't seen nothin' til a man starts comin' with a gun
           G5      E5
No you ain't seen nothin' til some nut starts comin' with a gun

            
            
Suggest correction
Creating personal tab
Creating personal tab
You can edit any tab online and save it as your Personal.

You can edit, replace or remove any tab part or add personal notes – all changes will be seen only by you.

Personal tabs can be accessed anytime from any device, even offline.
Learn more »
Give kudos to tab author, rate the tab!
1 2 3 4 5
comments
print report bad tab
guest
You may want to rate the tab now too:
select rating
Wanna post a correction for this tab? Suggest correction