Oops, an error
Loading. Please wait.

Earache My Eye Tab

version 1
version 1

Interactive

28,094 views 33 this week
1 commentread comment
1 2 3 4 5
x 10
add to favorites
launch autoscroll
font size
0
reset
how to read this tab
guitar tuner
×
Best way to learn
"Earache My Eye"
Autoscroll
slow
fast
+/-
esc
set tempo
stop
[riff a]
e|--------------|
B|--------------|
G|--------------|
D|--------5-5---|
A|--------7-7-9-|
E|--7-6-5-----7-|

[riff b]
e|-----------------------------------------|
B|-----------------------------------------|
G|-----------------------------------------|
D|------------------------------------5-6-7|
A|--5-7-5-------5-7-5-------7-6-5-5-5------|
E|--------5-7-5-------5-7-5----------------|

[riff a] (x4)
e|--------------|
B|--------------|
G|--------------|
D|--------5-5---|
A|--------7-7-9-|
E|--7-6-5-----7-|

[riff b]
e|-----------------------------------------|
B|-----------------------------------------|
G|-----------------------------------------|
D|------------------------------------5-6-7|
A|--5-7-5-------5-7-5-------7-6-5-5-5------|
E|--------5-7-5-------5-7-5----------------|

my momma talkin to me tryin to tell how to live
but I don't listen to her cuz my head is like a sieve

[riff b]
e|-----------------------------------------|
B|-----------------------------------------|
G|-----------------------------------------|
D|------------------------------------5-6-7|
A|--5-7-5-------5-7-5-------7-6-5-5-5------|
E|--------5-7-5-------5-7-5----------------|

[riff a] (x2)
e|--------------|
B|--------------|
G|--------------|
D|--------5-5---|
A|--------7-7-9-|
E|--7-6-5-----7-|

my daddy his disowned me cuz i where my sister's clothes
he caught me in the bathroom with a pair of panty hose

[riff b]
e|-----------------------------------------|
B|-----------------------------------------|
G|-----------------------------------------|
D|------------------------------------5-6-7|
A|--5-7-5-------5-7-5-------7-6-5-5-5------|
E|--------5-7-5-------5-7-5----------------|

my basketball coach he done kicked me off the team
for wearin his heeled sneakers and acting like a queeeeeeen

[Solo]
[riff a] (x2)
e|--------------|
B|--------------|
G|--------------|
D|--------5-5---|
A|--------7-7-9-|
E|--7-6-5-----7-|

[riff a] (x2)
e|--------------|
B|--------------|
G|--------------|
D|--------5-5---|
A|--------7-7-9-|
E|--7-6-5-----7-|

the worlds coming to an end i don't give a care
as long as i can have a limo and my long orange hair

[riff b]
e|-----------------------------------------|
B|-----------------------------------------|
G|-----------------------------------------|
D|------------------------------------5-6-7|
A|--5-7-5-------5-7-5-------7-6-5-5-5------|
E|--------5-7-5-------5-7-5----------------|

[riff a] (x2)
e|--------------|
B|--------------|
G|--------------|
D|--------5-5---|
A|--------7-7-9-|
E|--7-6-5-----7-|

and it don't bother me if people think i'm funny
cuz i'm a big rockstar and i'm making lots of money money money aaaah

[riff b]
e|-----------------------------------------|
B|-----------------------------------------|
G|-----------------------------------------|
D|------------------------------------5-6-7|
A|--5-7-5-------5-7-5-------7-6-5-5-5------|
E|--------5-7-5-------5-7-5----------------|

i'm so bloody rich aaaaah. i own apartment buildings and shopping 
centers aaaah. i only know three chords aaaah. i'm a free bird, you
fools aaaah.
Suggest correction
comments
print report bad tab
1 comment total.
0 reply
minegoesto11 20 Aug 09, 2010 10:00 PM

Several small lyrical errors but the most obvious is "I'm a free bird"? the correct lyric is "watch me burn"

guest
You may want to rate the tab now too:
select rating
Wanna post a correction for this tab? Suggest correction