Oops, an error
Loading. Please wait.

Earache My Eye tab

version 7
version 7

Whole song

Interactive

28 views 12 this week
no commentswrite comment
1 2 3 4 5
2 more votes to show rating
add to favorites
×
Save as Personal and add changes to this tab that will be seen only by you. Learn more ›
×
You can save this tab as Personal to edit and correct it or add notes. All changes will be seen only by you. Learn more »
launch autoscroll
font size
0
reset
how to read this tab
guitar tuner
backing track
0:00
0:00
edit
Autoscroll
slow
fast
+/-
esc
set tempo
stop
About this tab version
This is Tab and lyrics for Cheech and Chong's Earache My Eye from Cheech and Chong's Wedding Album. Moderate speed. Strong distortion. From the movie. Was this info helpful? Yes No
[Intro] 
In E

[riff a]                 x4
e|---------------|----------|
B|---------------|----------|
G|---------------|----------|
D|---------------|----------|
A|---------------|--5-5-5---|
E|--7-6-5--7-6-5-|--5-5-7---|

[riff b]
e|----------------|--------------|----------|----------|
B|----------------|--------------|----------|----------|
G|----------------|--------------|----------|-----4-(4)|
D|----------------|--------------|----------|-2-4------|
A|--8-7--7--------|6-5--5--------|-4-3-2-2--|----------|
E|---------6-5--5-|-------4-3--3-|----------|----------|

[riff a] 
e|---------------|----------|
B|---------------|----------|
G|---------------|----------|
D|---------------|----------|
A|---------------|--5-5-5---|
E|--7-6-5--7-6-5-|--5-5-7---|

my momma talkin' to me tryin' to tell how to live

[riff a] 
e|---------------|----------|
B|---------------|----------|
G|---------------|----------|
D|---------------|----------|
A|---------------|--5-5-5---|
E|--7-6-5--7-6-5-|--5-5-7---|

but I don't listen to her 'cause my head is like a sieve

[riff b]
e|----------------|--------------|----------|----------|
B|----------------|--------------|----------|----------|
G|----------------|--------------|----------|-----4-(4)|
D|----------------|--------------|----------|-2-4------|
A|--8-7--7--------|6-5--5--------|-4-3-2-2--|----------|
E|---------6-5--5-|-------4-3--3-|----------|----------|

[riff a] 
e|---------------|----------|
B|---------------|----------|
G|---------------|----------|
D|---------------|----------|
A|---------------|--5-5-5---|
E|--7-6-5--7-6-5-|--5-5-7---|

my daddy his disowned me 'cause I wear my sister's clothes

[riff a] 
e|---------------|----------|
B|---------------|----------|
G|---------------|----------|
D|---------------|----------|
A|---------------|--5-5-5---|
E|--7-6-5--7-6-5-|--5-5-7---|

he caught me in the bathroom with a pair of panty hose

[riff b]
e|----------------|--------------|----------|----------|
B|----------------|--------------|----------|----------|
G|----------------|--------------|----------|-----4-(4)|
D|----------------|--------------|----------|-2-4------|
A|--8-7--7--------|6-5--5--------|-4-3-2-2--|----------|
E|---------6-5--5-|-------4-3--3-|----------|----------|

[riff a] 
e|---------------|----------|
B|---------------|----------|
G|---------------|----------|
D|---------------|----------|
A|---------------|--5-5-5---|
E|--7-6-5--7-6-5-|--5-5-7---|

my basketball coach he done kicked me off the team

[riff a] 
e|---------------|----------|
B|---------------|----------|
G|---------------|----------|
D|---------------|----------|
A|---------------|--5-5-5---|
E|--7-6-5--7-6-5-|--5-5-7---|

for wearin' high heeled sneakers and acting like a queeeeeeen haha

[riff b]
e|----------------|--------------|----------|----------|
B|----------------|--------------|----------|----------|
G|----------------|--------------|----------|-----4-(4)|
D|----------------|--------------|----------|-2-4------|
A|--8-7--7--------|6-5--5--------|-4-3-2-2--|----------|
E|---------6-5--5-|-------4-3--3-|----------|----------|

[Solo]

[riff a] (x2)
e|---------------|----------|
B|---------------|----------|
G|---------------|----------|
D|---------------|----------|
A|---------------|--5-5-5---|
E|--7-6-5--7-6-5-|--5-5-7---|

[riff b]
e|----------------|--------------|----------|----------|
B|----------------|--------------|----------|----------|
G|----------------|--------------|----------|-----4-(4)|
D|----------------|--------------|----------|-2-4------|
A|--8-7--7--------|6-5--5--------|-4-3-2-2--|----------|
E|---------6-5--5-|-------4-3--3-|----------|----------|

[riff a]
e|---------------|----------|
B|---------------|----------|
G|---------------|----------|
D|---------------|----------|
A|---------------|--5-5-5---|
E|--7-6-5--7-6-5-|--5-5-7---|

the world's coming to an end I don't give a care

[riff a]
e|---------------|----------|
B|---------------|----------|
G|---------------|----------|
D|---------------|----------|
A|---------------|--5-5-5---|
E|--7-6-5--7-6-5-|--5-5-7---|

as long as I can have a limo and my orange hair

[riff b]
e|----------------|--------------|----------|----------|
B|----------------|--------------|----------|----------|
G|----------------|--------------|----------|-----4-(4)|
D|----------------|--------------|----------|-2-4------|
A|--8-7--7--------|6-5--5--------|-4-3-2-2--|----------|
E|---------6-5--5-|-------4-3--3-|----------|----------|

[riff a]
e|---------------|----------|
B|---------------|----------|
G|---------------|----------|
D|---------------|----------|
A|---------------|--5-5-5---|
E|--7-6-5--7-6-5-|--5-5-7---|

and it don't bother me if people think I'm funny

[riff a]
e|---------------|----------|
B|---------------|----------|
G|---------------|----------|
D|---------------|----------|
A|---------------|--5-5-5---|
E|--7-6-5--7-6-5-|--5-5-7---|

'cause I'm a big rockstar and I'm making lots of money money money 
money money aaaaah 

[riff b]
e|----------------|--------------|----------|----------|
B|----------------|--------------|----------|----------|
G|----------------|--------------|----------|-----4-(4)|
D|----------------|--------------|----------|-2-4------|
A|--8-7--7--------|6-5--5--------|-4-3-2-2--|----------|
E|---------6-5--5-|-------4-3--3-|----------|----------|

hahahahahahaha
I'm so bloody rich aaaaah. I own apartment buildings and shopping centers 
aaaahaha. I only know three chords aaaah. Watch me burn, you fools aaaah.

            
            
Suggest correction
Creating personal tab
Creating personal tab
You can edit any tab online and save it as your Personal.

You can edit, replace or remove any tab part or add personal notes – all changes will be seen only by you.

Personal tabs can be accessed anytime from any device, even offline.
Learn more »
Give kudos to tab author, rate the tab!
1 2 3 4 5
comments
print report bad tab
guest
You may want to rate the tab now too:
select rating
Wanna post a correction for this tab? Suggest correction