Oops, an error
Loading. Please wait.

Enes tab

version 2
version 2

Whole song

by Cheese
1,026 views 6 this week
no commentswrite comment
1 2 3 4 5
3 more votes to show rating
add to favorites
×
Save as Personal and add changes to this tab that will be seen only by you. Learn more ›
×
You can save this tab as Personal to edit and correct it or add notes. All changes will be seen only by you. Learn more »
launch autoscroll
font size
0
reset
how to read this tab
guitar tuner
edit
Autoscroll
slow
fast
+/-
esc
set tempo
stop
Author
Difficulty
Tabbed by: Masjud Sangki

Note: This file is the author's own work and represents their interpretation
of the song. You may only use this file for private study, scholarship, or
research.

Para 'to sa atin, sa mga wlang 7-string!!!
Sa mga nangangarap na magkaroon ng 7-string guitar!!!
Sa mga gustong magbenta ng 7-string sa akin!!!
Sa mga taeng nakakalat sa lansangan!!!
Sa mga taong tinakbuhan ng mga utang!!!
Mabuhay tayong lahat!!!

cia nga pla, Heart Evengelista... Pag kelangan m ng ???, and2
lang ako sa cotabato... hanapin m nlng ako d2...


Standard Tuning
(EADGBe)

Intro
e|-----------------------------------------------------------|
B|-----------------------------------------------------------|
G|-----------------------------------------------------------|
D|--3-3-3-3-3-4-4-4-2-0-2-2-0--5-5-5-4--5-5-5-5--3-3-3-4-4---|
A|--1-1-3-3-3-4-4-4-2-0-2-2-0--3-3-3-4--3-3-3-3--3-3-3-4-4---|
E|--1-1-1-1-1-2-2-2---0-----0--3-3-3-2--3-3-3-3--1-1-1-2-2---|

Repeat these a couple of times
e|--------------------------------------------------|
B|--------------------------------------------------|
G|--------------------------------------------------|
D|--2-0-2-2-0--5-5-5-4--5-5-5-3--3-3-3-4-4----------|
A|--2-0-2-2-0--3-3-3-4--3-3-3-3--3-3-3-4-4----------|
E|----0-----0--3-3-3-2--3-3-3-1--1-1-1-2-2----------|


Verse
Repeat these many times... Just listen to the cd...
e|--------------------------------|
B|--------------------------------|
G|--------------------------------|
D|--2-2-2-5-5-0-4-5-5-0-4-5-5-5---|
A|--2-2-2-3-3-0-2-3-3-0-2-3-3-3---|
E|--------3-3-0-2-3-3-0-2-3-3-3---|

then
e|-------------------------------|
B|-------------------------------|
G|-------------------------------|
D|--2-2-2-5-5-0-4-5--------------|
A|--2-2-2-3-3-0-4-3--------------|
E|--------3-3-0-2-3--------------|

then
e|-------------------------------------------------|
B|-------------------------------------------------|
G|-------------------------------------------------|
D|----------0-5-0-5/7-7-0-5-0-5-0-4/5-5-0----------|
A|----------0-3-0-3/7-7-0-3-0-3-0-2/3-3-0----------|
E|--3-3-0---0-3-0-3/5-5-0-3-0-3-0-2/3-3-0----------|

Chorus
e|----------------------------------|
B|----------------------------------|
G|----------------------------------|
D|-----------0-3-0-3/4-4------------|
A|--1h2------0-1-0-1/2-2------------|
E|------2-1--0-1-0-1/2-2------------|

Outro
e|-------------------------------------|
B|-------------------------------------|
G|-------------------------------------|
D|------------0-4-0-3--0-3-4-0-3-4-----|
A|--0---0-----0-2-0-1--0-1-2-0-1-2-----|
E|----2---2h3-0-2-0-1--0-1-2-0-1-2-----|

Pls rate this tab...
For comments, email me at puremassacre81@silverchair.nu or txt me.. 09283273282
Comments are appreciated...

            
            
Suggest correction
Creating personal tab
Creating personal tab
You can edit any tab online and save it as your Personal.

You can edit, replace or remove any tab part or add personal notes – all changes will be seen only by you.

Personal tabs can be accessed anytime from any device, even offline.
Learn more »
Give kudos to tab author, rate the tab!
1 2 3 4 5
comments
print report bad tab
guest
You may want to rate the tab now too:
select rating
Wanna post a correction for this tab? Suggest correction