Oops, an error
Loading. Please wait.

Dont Hate On Me tab

version 1
version 1

Whole song

by Chelou
211 views 18 this week
1 commentread comment
1 2 3 4 5
1 last vote to show rating
add to favorites
×
Save as Personal and add changes to this tab that will be seen only by you. Learn more ›
×
You can save this tab as Personal to edit and correct it or add notes. All changes will be seen only by you. Learn more »
launch autoscroll
font size
0
reset
how to read this tab
guitar tuner
edit
Autoscroll
slow
fast
+/-
esc
set tempo
stop
[Riff A]
  (Guitar 1)
e|----------------------------------------|-------------------------------------|
B|----------------------------------------|-------------------------------------|
G|---------2---------2--------2--------2--|-------2--------2--------2--------2--|
D|------0---------0---------0--------0----|-----0--------0--------0--------0----|
A|---3----------3---------3--------3------|---3--------3--------3--------3------|
D|-3----------3---------2--------2--------|-0--------0--------0--------0--------|

  (Guitar 2)
e|----------------------------------------|-------------------------------------|
B|----------------------------------------|--1h3-1-------------1h3-1------------|
G|----------------------------------------|--------2-----------------2----------|
D|----------------------------------------|--0---0---3-0---0---0---0---3-0---0--|
A|----------------------------------------|--------------3-----------------3----|
D|----------------------------------------|-------------------------------------|

  (Guitar 1)
e|----------------------------------------|-------------------------------------|
B|----------------------------------------|-------------------------------------|
G|---------2---------2--------2--------2--|-------2--------2--------2--------2--|
D|------0---------0---------0--------0----|-----0--------0--------0--------0----|
A|---3----------3---------3--------3------|---3--------3--------3--------3------|
D|-3----------3---------2--------2--------|-0--------0--------0--------0--------|

 (Guitar 2)
e|----------------------------------------|--1h3-1-------------1h3-1------------|
B|----------------------------------------|--------1-3-1-------------1-3-1------|
G|----------------------------------------|--------------0-2---------------0-2--|
D|----------------------------------------|--0---0---0-0-0-0---0---0---0-0-0-0--|
A|----------------------------------------|-------------------------------------|
D|----------------------------------------|-------------------------------------|

[Riff B]
 (Guitar 1)                                                                      (x2)
e|----------------------------------------|-------------------------------------|
B|----------------------------------------|-------------------------------------|
G|---------2---------2--------2--------2--|-------2--------2--------2--------2--|
D|------0---------0---------0--------0----|-----0--------0--------0--------0----|
A|---3----------3---------3--------3------|---3--------3--------3--------3------|
D|-3----------3---------2--------2--------|-0--------0--------0--------0--------|

 (Guitar 2)                                                                     (x2)
e|----10---8----5----3----1---------------|-------------------------------------|
B|----------------------------5----3----1-|----3-----------------3--------------|
G|-10----9----5----4----2-----------------|-------------------------------------|
D|--------------------------5----3----2---|-0------------2h3--0-----------------|
A|----------------------------------------|-------------------------------------|
D|----------------------------------------|-------------------------------------|

[Verse]
  (Guitar 1)                                                                (x4)
e|-------------------------------------|-------------------------------------|
B|-------------------------------------|-------------------------------------|
G|-------2--------2--------2--------2--|-------2--------2--------2--------2--|
D|-----0--------0--------0--------0----|-----0--------0--------0--------0----|
A|---3--------3--------3--------3------|---3--------3--------3--------3------|
D|-3--------2--------0--------0--------|-3--------2--------0--------0--------|

  (Guitar 2)                                                                 (x4)
e|-------------------------------------|-------------------------------------|
B|-------------------------------------|-------------------------------------|
G|-2--------0--------------------------|-------------------------------------|
D|------------------3------------------|-3--------2-------0------------------|
A|-------------------------------------|-------------------------------------|
D|-------------------------------------|-------------------------------------|

[Pre-Chorus]
  (Guitar 1)                           (x2)
e|-------------------------------------|----------|
B|-------------------------------------|----------|
G|-------2--------2--------2--------2--|-------2--|
D|-----0--------0--------0--------0----|-----0----|
A|---3--------3--------3--------3------|---3------|
D|-3--------3--------2--------0--------|-0--------|

 (Guitar 2)                            (x2)
e|---1-------1-------------------------|----------|
B|-----1h3p1---1---1-------1-----------|----------|
G|-------------------0h2p0-------------|----------|
D|---------------------------3-0-------|-(0)------|
A|-------------------------------------|----------|
D|-------------------------------------|----------|

[Chorus]
 (Guitar 1)/(Guitar 2)                                      (x4)
e|---------------------------|----------------------------|
B|-------3------------3------|---------3-----------3------|
G|---------------------------|----------------------------|
D|----0------------0---------|------0-----------0---------|
A|---------------------------|----------------------------|
D|-3------------5------------|------0--------3------------|

[Riff B]
 (Guitar 1)                                                                      (x2)
e|----------------------------------------|-------------------------------------|
B|----------------------------------------|-------------------------------------|
G|---------2---------2--------2--------2--|-------2--------2--------2--------2--|
D|------0---------0---------0--------0----|-----0--------0--------0--------0----|
A|---3----------3---------3--------3------|---3--------3--------3--------3------|
D|-3----------3---------2--------2--------|-0--------0--------0--------0--------|

 (Guitar 2)                                                                     (x2)
e|----10---8----5----3----1---------------|-------------------------------------|
B|----------------------------5----3----1-|----3-----------------3--------------|
G|-10----9----5----4----2-----------------|-------------------------------------|
D|--------------------------5----3----2---|-0------------2h3--0-----------------|
A|----------------------------------------|-------------------------------------|
D|----------------------------------------|-------------------------------------|

[Verse 2]
  (Guitar 1)                                                               (x4)
e|-------------------------------------|-------------------------------------|
B|-------------------------------------|-------------------------------------|
G|-------2--------2--------2--------2--|-------2--------2--------2--------2--|
D|-----0--------0--------0--------0----|-----0--------0--------0--------0----|
A|---3--------3--------3--------3------|---3--------3--------3--------3------|
D|-3--------2--------0--------0--------|-3--------2--------0--------0--------|

  (Guitar 2) (with keyboard)                                                 (x4)
e|-------------------------------------|-------------------------------------|
B|-------------------------------------|-------------------------------------|
G|-2--------0--------------------------|---------(0)-----(2)-----------------|
D|---------(0)------3------------------|-3--------2-------0------------------|
A|(3)----------------------------------|-------------------------------------|
D|-------------------------------------|-------------------------------------|

[Pre-Chorus]
  (Guitar 1)                           (x2)
e|-------------------------------------|----------|
B|-------------------------------------|----------|
G|-------2--------2--------2--------2--|-------2--|
D|-----0--------0--------0--------0----|-----0----|
A|---3--------3--------3--------3------|---3------|
D|-3--------3--------2--------0--------|-0--------|

 (Guitar 2)                            (x2)
e|---1-------1-------------------------|----------|
B|-----1h3p1---1---1-------1-----------|----------|
G|-------------------0h2p0-------------|----------|
D|---------------------------3-0-------|-(0)------|
A|-------------------------------------|----------|
D|-------------------------------------|----------|

[Chorus]
  (Guitar 1) and 2                                        (x4)
e|---------------------------|----------------------------|
B|-------3------------3------|---------3-----------3------|
G|---------------------------|----------------------------|
D|----0------------0---------|------0-----------0---------|
A|---------------------------|----------------------------|
D|-3------------5------------|------0--------3------------|

[Riff B]
 (Guitar 1)                                                                      (x2)
e|----------------------------------------|-------------------------------------|
B|----------------------------------------|-------------------------------------|
G|---------2---------2--------2--------2--|-------2--------2--------2--------2--|
D|------0---------0---------0--------0----|-----0--------0--------0--------0----|
A|---3----------3---------3--------3------|---3--------3--------3--------3------|
D|-3----------3---------2--------2--------|-0--------0--------0--------0--------|

 (Guitar 2)                                                                     (x2)
e|----10---8----5----3----1---------------|-------------------------------------|
B|----------------------------5----3----1-|----3-----------------3--------------|
G|-10----9----5----4----2-----------------|-------------------------------------|
D|--------------------------5----3----2---|-0------------2h3--0-----------------|
A|----------------------------------------|-------------------------------------|
D|----------------------------------------|-------------------------------------|

[Riff A]
  (Guitar 1)
e|----------------------------------------|-------------------------------------|
B|----------------------------------------|-------------------------------------|
G|---------2---------2--------2--------2--|-------2--------2--------2--------2--|
D|------0---------0---------0--------0----|-----0--------0--------0--------0----|
A|---3----------3---------3--------3------|---3--------3--------3--------3------|
D|-3----------3---------2--------2--------|-0--------0--------0--------0--------|

  (Guitar 2)
e|----------------------------------------|-------------------------------------|
B|----------------------------------------|--1h3-1-------------1h3-1------------|
G|----------------------------------------|--------2-----------------2----------|
D|----------------------------------------|--0---0---3-0---0---0---0---3-0---0--|
A|----------------------------------------|--------------3-----------------3----|
D|----------------------------------------|-------------------------------------|

  (Guitar 1)
e|----------------------------------------|-------------------------------------|
B|----------------------------------------|-------------------------------------|
G|---------2---------2--------2--------2--|-------2--------2--------2--------2--|
D|------0---------0---------0--------0----|-----0--------0--------0--------0----|
A|---3----------3---------3--------3------|---3--------3--------3--------3------|
D|-3----------3---------2--------2--------|-0--------0--------0--------0--------|

 (Guitar 2)
e|----------------------------------------|--1h3-1-------------1h3-1------------|
B|----------------------------------------|--------1-3-1-------------1-3-1------|
G|----------------------------------------|--------------0-2---------------0-2--|
D|----------------------------------------|--0---0---0-0-0-0---0---0---0-0-0-0--|
A|----------------------------------------|-------------------------------------|
D|----------------------------------------|-------------------------------------|

[Outro]
  (Guitar 1)                                                                    (x2)
e|----------------------------------------|-------------------------------------|
B|----------------------------------------|-------------------------------------|
G|---------2---------2--------2--------2--|-------2--------2--------2--------2--|
D|------0---------0---------0--------0----|-----0--------0--------0--------0----|
A|---3----------3---------3--------3------|---3--------3--------3--------3------|
D|-3----------3---------2--------2--------|-0--------0--------0--------0--------|
 

************************************

| x   Dead note
| g   Grace note
| (n) Ghost note
| h   Hammer-on
| p   Pull-off
| r   Release
| >   Accented note
| t   Tapping
| b   Bend
| br  Bend release
| pb  Pre-bend
| pbr Pre-bend release
| /   Slide up
| \   Slide down
| ~   Vibrato
| s   Slap
| P   Pop
| PM  Palm mute
| TR  Trill
| N   Tremolo

************************************

            
            
Suggest correction
Creating personal tab
Creating personal tab
You can edit any tab online and save it as your Personal.

You can edit, replace or remove any tab part or add personal notes – all changes will be seen only by you.

Personal tabs can be accessed anytime from any device, even offline.
Learn more »
Give kudos to tab author, rate the tab!
1 2 3 4 5
comments
print report bad tab
1 comment total.
0 reply
viciouslyvexxed 10 Aug 04, 2017 07:54 AM

I've been hoping for this tab for a while now! Great

guest
You may want to rate the tab now too:
select rating
Wanna post a correction for this tab? Suggest correction