Oops, an error
Loading. Please wait.

Like A Dream ukulele

by Chelou
2,329 views 66 this week
no commentswrite comment
1 2 3 4 5
x 5
add to favorites
×
Save as Personal and add changes to this tab that will be seen only by you. Learn more ›
×
You can save this tab as Personal to edit and correct it or add notes. All changes will be seen only by you. Learn more »
launch autoscroll
font size
0
reset
transpose
0
reset
display chords
guitar tuner
edit
Autoscroll
slow
fast
+/-
esc
set tempo
stop
Author
Difficulty
Strumming
There is no strumming pattern for this song yet. and get +5 IQ
Artist: Chelou
Song: Like A Dream
Album: The Quiet EP
Year: 2014
Artist URL: https://www.facebook.com/chelouofficial/
Difficulty: Novice - Timing on the third verse takes some discipline but (at least on uke) shapes are simple.
Tabber: Gemneroth
TNs: Originally played on guitar, I've worked this out for uke as my poison of choice. Sounds about right to
     me but obviously missing some of the lower range of the guitar. For timings in the final verse you'll have
     to listen to the original. Did my best to indicate where and when. Corrections welcome. Great band, I'll
     be working out some of their other songs so check them out!


Chords:                                     
   F#m  F#m* C#m   D    E    Bm  (A)  (G#m)
A|--4----4----x----x----x----2----12---11--|
E|--5----2----4----2----4----2----9----7---|
C|--6----1----4----2----4----2----9----8---|
G|--6----2----1----2----4----4-------------|


Intro:

| F#m - C#m - | D - E - | x2


Verse 1:

F#m               C#m    D                 E         F#m
    And hold me closer submit me to your powers of seduction

         C#m             D            E
It's not magic though it feels that way.

F#m          C#m              D              E               F#m
    And I believe that it was love at least something of the sort

        C#m             D             E
Can't decide if it was real or just make believe


Chorus:

F#m  E D     C#m Bm                   F#m*
Like a dream I a-woke to find myself alone

F#m  E D     C#m Bm                   F#m*
Like a dream I a-woke to find myself alone


Verse 2:

F#m        C#m              D           E                  F#m
    And I admit that I have been preoccupied with material things

       C#m        D         E
that I wanted but did not need.

F#m               C#m              D         E               F#m
    But like your touch, your company subtle things reassure me

           C#m         D                 E
What's the point in possession when it's empty


Chorus:

F#m  E D     C#m Bm                   F#m*
Like a dream I a-woke to find myself alone

F#m  E D     C#m Bm                   F#m*
Like a dream I a-woke to find myself alone


Verse 3:

   F#m                                  E            F#m      
A|-------9----------------|-------7-----------2----|-------4----------------|
E|---9--------------------|---5-----------4--------|---5--------------------|
C|-6---6------------------|-6---6-------4---4------|-6---6------------------|
G|------------------------|------------------------|------------------------|
                     Sweet dreams giving me false ho-pe.


   A           G#m          F#m      
A|-------12----------11---|-------9----------------|
E|---9-----------7--------|---9--------------------|
C|-9---9-------8---8------|-6---6------------------|
G|------------------------|------------------------|
      I was a- lone when I woke. 


               E            F#m
A|-------7-----------2----|-------4----------------|
E|---5-----------4--------|---5--------------------|
C|-6---6-------4---4------|-6---6------------------|
G|------------------------|------------------------|
    You always said you don't


   A           G#m          F#m      
A|-------12----------11---|-------9----------------|
E|---9-----------7--------|---9--------------------|
C|-9---9-------8---8------|-6---6------------------|
G|------------------------|------------------------|
  look back   when you lea-ve.       


                  E               F#m           
A|-------7-----   ------2----|-   ------4----------------|
E|---5---------   --4--------|-   --5--------------------|
C|-6---6-------   4---4------|-   6---6------------------|
G|-------------   -----------|-   -----------------------|
   Still you been giving me those sweet dreams.


   A           G#m          F#m                      D     E     F#m*
A|-------12----------11---|-0----------------------|-0-----2-----4----------|
E|---9-----------7--------|-2----------------------|-2-----4-----5----------|
C|-9---9-------8---8------|-1----------------------|-2-----4-----6----------|
G|------------------------|-2----------------------|-2-----4-----6----------|


Outro:

| Bm -  D C#m | F#m - - - |  x3

            
            
Suggest correction
Creating personal tab
Creating personal tab
You can edit any tab online and save it as your Personal.

You can edit, replace or remove any tab part or add personal notes – all changes will be seen only by you.

Personal tabs can be accessed anytime from any device, even offline.
Learn more »
comments
print report bad tab
guest
You may want to rate the tab now too:
select rating
Wanna post a correction for this tab? Suggest correction