Oops, an error
Loading. Please wait.

Anathema Of The Sick Bass

version 1
version 1

Whole song

Interactive

1,265 views 1 this week
2 commentsread comments
1 2 3 4 5
1 last vote to show rating
add to favorites
launch autoscroll
font size
0
reset
guitar tuner
Autoscroll
slow
fast
+/-
esc
set tempo
stop
Chelsea Grin: Anathema of the Sick
Duration: 0:00 - 1:11
Tuning: Drop D
)This is my first tab(

Chelsea Grin: Anathema of the Sick
Tuning: Drop D

LEGEND:

& = Rest (one note long, used for pauses when lead guitar plays a higher note)
\ = Slide (Slide down neck, towards the 1 fret)
INTRO

D|--6-5-4---6-5-4---6-5---8-|
A|5-------5-------5-----5---|          } X4
D|--------------------------|
G|--------------------------|

VERSE 1              ("5" is where the first high-pitched \/scream comes in)
D|2-----2-2-2-2-3-2-2-1----2-2-3-2--2-3-3-1--2-2-3-1-2-3-3-5-|
A|-----------------------------------------------------------|
D|-----------------------------------------------------------|
G|-----------------------------------------------------------|
                          (Low vocals\/)
D|5-5-6-4--5-5-6-4--5--5-6-4--55-6-4-2-2-3-2--22-3-2-|
A|---------------------------------------------------|
D|---------------------------------------------------|
G|---------------------------------------------------|

D|2-2-3-1--2-3-1-|
A|---------------|
D|---------------|
G|---------------|

"CHORUS"
D|7-5-4-3-7-5-4-3-7-5-4-8-|
A|------------------------|
D|------------------------|
G|------------------------|

D|7-5-4-3-7-5-4-3-------------|
A|----------------------------| X4
D|----------------------------|
G|----------------------------|

VERSE 2
(Rest from 0:55-1:01)
D|1-1-1-1-1-2--1-1-1-1-1-2-1-1-1-1-1----------------------------|
A|------------------------------------     {Continue until 1:22-|
D|--------------------------------------------------------------|     {About 4X)
G|--------------------------------------------------------------|

(Low vox pickup here\/)
D|1-1-1-1-1-1-1-1-1-1-2-2-2-2-2-7\-|
A|---------------------------------|
D|---------------------------------|
G|---------------------------------|
Suggest correction
Give kudos to tab author, rate the tab!
1 2 3 4 5
comments
print report bad tab
2 comments total.
0 reply
metalhead601 208 May 26, 2014 03:57 PM

They use 5 strings not 4.

0 reply
Robert2511 321 May 12, 2015 02:42 AM

Pretty sure they tune a lot lower than that, plus the tab is upside down, the lower strings go at the bottom and the higher strings at the top

guest
You may want to rate the tab now too:
select rating
Wanna post a correction for this tab? Suggest correction