Oops, an error
Loading. Please wait.

Anathema Of The Sick Tab

version 1
version 1

Whole song

Interactive

4,774 views 9 this week
no commentswrite comment
1 2 3 4 5
excellent!
x 6
add to favorites
launch autoscroll
font size
0
reset
how to read this tab
guitar tuner
Tab Pro tools
  • play this tab
  • loop segment
  • change instrument
  • show fretboard
  • metronome
Autoscroll
slow
fast
+/-
esc
set tempo
stop
Contributor
Difficulty
Tuning
novice
A E A D F# B
-------------------------------------------------------------------------------
			Anathema of The Sick - Chelsea Grin
-------------------------------------------------------------------------------
Tabbed by:Jaredh_d2012
Email:jaredh_d2012@hotmail.com

Tuning: Drop A   7 string = AEADGBe or 6 sting = AEADF#B

e|---------------------------------------------------------------------------|
B|---------------------------------------------------------------------------|
G|---------------------------------------------------------------------------|
D|---------------------------------------------------------------------------|
A|---------------------------------------------------------------------------|
E|-2222--------------2222-------------2222--------3333-----------------------|
A|-----333322220000------333322220000-----33332222-----4444333311110000------|X4

e|------|
B|------|
G|------|
D|------|
A|-0----|
E|-0----|
A|-0----|

e|------------------------------------------|
B|------------------------------------------|
G|------------------------------------------|
D|------------------------------------------|
A|-2-----3----------------2-------3---------|
E|-2-3-2-3-4-3-0-1--0-1-3-2-3-2-1-3-4-3-2---|
A|---3-2---4-3-0-1--0-1-3---3-2-1---4-3-2---|X4

e|---------------------------------------------------------------------------|
B|---------------------------------------------------------------------------|
G|---------------------------------------------------------------------------|
D|---------------------------------------------------------------------------|
A|---------------------------------------------------------------------------|
E|-2222--------------2222-------------2222--------3333-----------------------|
A|-----333322220000------333322220000-----33332222-----4444333311110000------|X2

e|--------------------|
B|--------------------|
G|--------------------|
D|--------------------|
A|-3-2----------------|
E|-3-2-----3-5-6-8-7--|
A|---------3-5-6-8-7--|

e|--------------------------------------------------------------------|
B|--------------------------------------------------------------------|
G|--------------------------------------------------------------------|
D|--------------------------------------------------------------------|
A|---------------6--------------6-6----------------6------------------|
E|-0-1-0-1-4-3-1-5--0-1-4-3-1-0-5-5--0-1-0-1-4-3-1-5--0-1-4-3-1-------|
A|-0-1-0-1-4-3-1----0-1-4-3-1-0------0-1-0-1-4-3-1----0-1-4-3-1-------|

e|--------------------------------------------------------------------|
B|--------------------------------------------------------------------|
G|--------------------------------------------------------------------|
D|--------------------------------------------------------------------|
A|---------------6--------------6-6----------------6------------6-6---|
E|-0-1-0-1-4-3-1-5--0-1-4-3-1-0-5-5--0-1-0-1-4-3-1-5--0-1-4-3-1-5-5---|
A|-0-1-0-1-4-3-1----0-1-4-3-1-0------0-1-0-1-4-3-1----0-1-4-3-1-------|X3

e|----------------------------------------------------------------------|
B|----------------------------------------------------------------------|
G|----------------------------------------------------------------------|
D|----------------------------------------------------------------------|
A|----------------------------------------------------------------------|
E|--------------5--------------5-5----------------5-----------5-5-------|
A|-0-1-0-1-4-3-1----0-1-4-3-1-0------0-1-0-1-4-3-1----0-1-4-3-1---------|X2
 Trem All---------------------------------------------------------------|

e|--------------------------------|
B|--------------------------------|
G|--------------------------------|
D|--------------------------------|
A|-----------------------------6--|
E|-0-1-0-1-0-----0-1-0-1-4-3-1-5--|
A|-0-1-0-1-0-----0-1-0-1-4-3-1----|X4


Right Channel

e|---------------------------------------------------------------------------------------------|
B|---------------------------------------------------------------------------------------------|
G|---------------------------------------------------------------------------------------------|
D|---------------------------------------------------------------------------------------------|
A|-0~~~~~~~~~~~~~~~~~~~~~~~~~~~~~~~------------------------------------------------------------|
E|-0~~~~~~~~~~~~~~~~~~~~~~~~~~~~~~~(0)~~~~~--X/~~~~~~~~~~~~~~~\0~~~~~~~~~~~~~-0~~~~~~~~~/7~~8~~|
A|-0~~~~~~~~~~~~~~~~~~~~~~~~~~~~~~~(0)~~~~~--X/~~~~~~~~~~~~~~~\0~~~~~~~~~~~~~-0~~~~~~~~~/7~~8~~|
                                                 Pick-Slide
						(Start at 12)

Left channel

e|---------------------------------------------------------------------------------------------|
B|---------------------------------------------------------------------------------------------|
G|---------------------------------------------------------------------------------------------|
D|---------------------------------------------------------------------------------------------|
A|---------------------------------------------------------------------------------------------|
E|-----8p5-7p4---8p5-7p4-10p7-8p5---8p5-7p4---12p8-12p8-10p7-10p7---8p5-7p4---8p5-8p5-7p4-7p4-0|
A|-0-0--------0-0----------------0-0 ------0-0-------------------0-0-------0-0----------------0|


Both again

e|----------------------------------------------------------------|
B|----------------------------------------------------------------|
G|----------------------------------------------------------------|
D|----------------------------------------------------------------|
A|----------------------------------------------------------------|
E|-----8p5-7p4---8p5-7p4-10p7-8p5---8p5-7p4---12p8-12p8-10p7-10p7-|
A|-0-0--------0-0----------------0-0 ------0-0--------------------|X4


e|-----------------------------------------------------------|
B|-----------------------------------------------------------|
G|-----------------------------------------------------------|
D|-----------------------------------------------------------|
A|-----------------------------------------------------------|
E|-555555777777888888444444-121212121212101010101010888888---|
A|-----------------------------------------------------------|X2
                            (12's and 10's not 1's 2' etc.)


e|----------------------------------------------------------------------------|
B|----------------------------------------------------------------------------|
G|----------------------------------------------------------------------------|
D|----------------------------------------------------------------------------|
A|----------------------------------------------------------------------------|
E|-8888881010101010101212121212127777777-151515151515131313131313121212121212-|
A|----------------------------------------------------------------------------|X2
              (10's and 12's again)         (15's and 13's etc.)

This next part is really interesting. The left channel guitar in the beginning picks 
close to the bridge to get a really tight sound on the open

notes. Try to pick just under your bridge pick-up, it should sound the same if not close to it.

I've really exaggerated the spacing to tab out the rhythm the best I could, I hope it helps


Right Channel

e|--------------------------------------------------------------------------------------|
B|--------------------------------------------------------------------------------------|
G|--------------------------------------------------------------------------------------|
D|--------------------------------------------------------------------------------------|
A|------------------------------------------------------0~~~~~~~~~~~~~~~~~~~~-----------|
E|------------------------------------------------------0~~~~~~~~~~~~~~~~~~~~----000----|
A|------------------------------------------------------0~~~~~~~~~~~~~~~~~~~~----000----|
                                                  (Fade In)

Left Channel

e|---------------------------------------------------------------------------------------|
B|---------------------------------------------------------------------------------------|
G|---------------------------------------------------------------------------------------|
D|---------------------------------------------------------------------------------------|
A|---------------------------------------------------------------------------------------|
E|-----------------------------------------------------------------------------------000-|
A|-0-0-0-0-0-0-0------0----0--0-0-0-0-0---0-0-0-0-0-0-0-0------0----0--0-0-0-0-0-----000-|

Both Again

e|-------------------------------------------------------------------------------||-----|
B|-------------------------------------------------------------------------------||-----|
G|-------------------------------------------------------------------------------||-----|
D|-------------------------------------------------------------------------------||-----|
A|-3-3-3-3-3-3-3------3----3--3-3-3-3-3---3-3-3-3-3-3-3-3-3------3----3--000-000-||-0~~~|
E|-2-2-2-2-2-2-2------2----2--2-2-2-2-2---2-2-2-2-2-2-2-2-2------2----2--000-000-||-0~~~|
A|-3-3-3-3-3-3-3------3----3--3-3-3-3-3---3-3-3-3-3-3-3-3-3------3----3--000-000-||-0~~~|X4
                                                                                 ^Fourth Time only


************************************
| ~   Hold Note
| /   slide up
| \   slide down
| h   hammer-on
| p   pull-off


************************************
comments
print report bad tab
I want to post or [tab]
guest
You may want to rate the tab now too:
select rating
Please do not post tabs as comments. Select "correction" instead!