Oops, an error
Loading. Please wait.

Calling In Silence Tab

version 1
version 1

Intro

Solo

Whole song

Interactive

4,647 views 9 this week
2 commentsread comments
1 2 3 4 5
accurate
x 2
add to favorites
launch autoscroll
font size
0
reset
how to read this tab
guitar tuner
Tab Pro tools
  • play this tab
  • loop segment
  • change instrument
  • show fretboard
  • metronome
Autoscroll
slow
fast
+/-
esc
set tempo
stop
Contributor
Difficulty
intermediate
-------------------------------------------------------------------------------
                     Calling in Silence – Chelsea Grin
-------------------------------------------------------------------------------
Tabbed by: ZackAT1245

Tuning: Standard (EADGBE)

e|---------------------------------------------------------------------------|
B|---------------------------------------------------------------------------|
G|--7----7---7h9h10--9---7--6b--6~----7p6------------------------------------|
D|-----------------------------------------7p5----7---7--8--7--5--7--5-------|
A|---------------------------------------------------------------------------|
E|---------------------------------------------------------------------------|

e|---------------------------------------------------------------------------|
B|---------------------------------------------------------------------------|
G|---------------------------------10---10----10h12h13--12--10---9b--9~------|
D|---------------------------------------------------------------------------|
A|--8--7~---5--4--5--5/8---7-------------------------------------------------|
E|---------------------------------------------------------------------------|

e|---------------------------------------------------------------------------|
B|---------------------------------------------------------------------------|
G|--10p9---------------------------------------------------------------------|
D|--------10p8---10---10--12--10--8--10--8--7--5-----------------------------|
A|--------------------------------------------------8--7--8---8/12---10~-----|
E|---------------------------------------------------------------------------|

e|--12p8----------8---13p9----------9---15p11----------11----17b-------------|
B|-------10---10-----------11----11-----------13----13-----------------------|
G|----------9-----------------10-----------------12--------------------------|
D|---------------------------------------------------------------------------|
A|---------------------------------------------------------------------------|
E|---------------------------------------------------------------------------|

                                (Not so sure about this part) 
                                
e|--17b--15--14--15--14--12~---12h13p12-----12-----------12h14p12----12------|
B|---------------------------------------13----13p11h13-----------13---------|
G|---------------------------------------------------------------------------|
D|---------------------------------------------------------------------------|
A|---------------------------------------------------------------------------|
E|---------------------------------------------------------------------------|

e|-------------12h13p12----12-----------18p16p15-----------------------------|
B|--13p10h13------------13----13p11h13----------17p15p14---------------------|
G|-------------------------------------------------------17------------------|
D|---------------------------------------------------------------------------|
A|---------------------------------------------------------------------------|
E|---------------------------------------------------------------------------|

e|------------13h17-T18-p17p13--------------------13h17-T18-p17p13-----------|
B|----------15-----------------15---------------15-----------------15--------|
G|-------14-----------------------14---------14-----------------------14-----|
D|----15-----------------------------15----15----------------------------15--|
A|-17-----------------------------------17-----------------------------------|
E|---------------------------------------------------------------------------|

e|------------13h17-T24-p17p13---------------------13h17-T24-p17p13----------|
B|----------15-----------------15----------------15-----------------15-------|
G|-------14-----------------------14----------14-----------------------14----|
D|----15-----------------------------15----15-----------------------------15-|
A|-17-----------------------------------17-----------------------------------|
E|---------------------------------------------------------------------------|

e|------------13h17-T18-p17p13--------------------13h17-T18-p17p13-----------|
B|----------15-----------------15---------------15-----------------15--------|
G|-------14-----------------------14---------14-----------------------14-----|
D|----15-----------------------------15----15----------------------------15--|
A|-17-----------------------------------17-----------------------------------|
E|---------------------------------------------------------------------------|


e|--18p16p15----------17p15p14----------16p14p13------------12br---10~-------|
B|-----------17p15p14----------16p14p13----------15p13p12--------------------|
G|---------------------------------------------------------------------------|
D|---------------------------------------------------------------------------|
A|---------------------------------------------------------------------------|
E|---------------------------------------------------------------------------|




************************************

| /   slide up
| \   slide down
| h   hammer-on
| p   pull-off
| ~   vibrato
| T   tap
| +   harmonic
| x   Mute note
| b   Bend
| pb  Pre-bend
| br  Bend release
| pbr Pre-bend release
| brb Bend release bend

************************************


comments
We did not receive enough feedback on this tab! Please rate:
print report bad tab
1 2 3 4 5
2 comments total.
+1 reply
minkar_man72 wrote on November 21 2011, 12:10 pm

it sounds right though there are a few parts i dont agree with but you know its supposed to be in drop a on a 7 string right?

0 reply
????????METAL wrote on November 16 2012, 10:33 pm

Calling In Silence Solo

Tuning: 7 string Drop A

e|-----------------------------------------------------------------------|
B|----------------------------------------------------------------------|
G|--7--------7----6h-7h-9h-10----9----7----6b~---------------|
D|----------------------------------------------------------------------|
A|----------------------------------------------------------------------|
E|----------------------------------------------------------------------|
A|----------------------------------------------------------------------| x2 (Second time with harmony)

e|---------------------------------------------------------------------------------------------------------------------|
B|---------------------------------------------------------------------------------------------------------------------|
G|--7-6--------------------------------------------------------------------------------------------------------------|
D|--------8-5/7--------7----8----7----5----7----5----3----2---------------------------------------------------|
A|----------------------------------------------------------------------5----4----5----/8--------7~---------------|
E|---------------------------------------------------------------------------------------------------------------------|
A|---------------------------------------------------------------------------------------------------------------------|

e|--10h6----------6/12h9---------------9/15h12--------------12-18~---------------|
B|----------8----8------------11------11-------------14-----14--------------------------|
G|-------------7-------------------10----------------------12-------------------------------|
D|----------------------------------------------------------------------------------------------|
A|----------------------------------------------------------------------------------------------|
E|----------------------------------------------------------------------------------------------|
A|----------------------------------------------------------------------------------------------|

e|--17b---15----13----15----13----12~----------------|
B|--------------------------------------------------------------|
G|--------------------------------------------------------------|
D|--------------------------------------------------------------|
A|--------------------------------------------------------------|
E|--------------------------------------------------------------|
A|--------------------------------------------------------------|

T
e|--12h13h12h9-------------9h12h15h12h9-------------9h12h13h12h9-------------9----|
B|--------------------11----11-----------------------11----11-----------------------11----11-------|
G|------------------------9--------------------------------9--------------------------------9------------|
D|---------------------------------------------------------------------------------------------------------|
A|---------------------------------------------------------------------------------------------------------|
E|---------------------------------------------------------------------------------------------------------|
A|---------------------------------------------------------------------------------------------------------|

e|--18-17-15--------------------------------------|
B|---------------18-17-15-14b~----------------|
G|----------------------------------------------------|
D|----------------------------------------------------|
A|----------------------------------------------------|
E|----------------------------------------------------|
A|----------------------------------------------------|

T T
e|---------------------13h17h18h17h13----------------------------------13h17h18h17h13------------------|
B|----------------15--------------------------15-------------------------15---------------------------15-------------|
G|-----------14-----------------------------------14----------------14------------------------------------14---------|
D|------15---------------------------------------------15------15----------------------------------------------15----|
A|--17------------------------------------------------------17-----------------------------------------------------------|
E|--------------------------------------------------------------------------------------------------------------------------|
A|--------------------------------------------------------------------------------------------------------------------------|
T T
e|---------------------17h122h24h22h17----------------------------------17h22h24h22h17-----------------|
B|----------------18----------------------------18-------------------------18-------------------

I want to post or [tab]
guest
You may want to rate the tab now too:
select rating
Please do not post tabs as comments. Select "correction" instead!