Oops, an error
Loading. Please wait.

Calling In Silence Tab

version 1
version 1

Whole song

Interactive

12,290 views 15 this week
4 commentsread comments
1 2 3 4 5
excellent!
x 8
add to favorites
launch autoscroll
font size
0
reset
how to read this tab
guitar tuner
Tab Pro tools
  • play this tab
  • loop segment
  • change instrument
  • show fretboard
  • metronome
×
Best way to learn
"Calling In Silence"
Autoscroll
slow
fast
+/-
esc
set tempo
stop
Contributor
Difficulty
Tuning
intermediate
A E A D F# B
Tabbed by:
Aaron

Tuning:
drop A

intro:-0:54
e|---------------------------------------------------------------------------|
B|---------------------------------------------------------------------------|
G|---7h8p7-----7h8p7-----7h8p7-----7h8p7-------------------------------------|
D|5h8-----8-5h8-----8-5h8-----8-5h8-----8------------------------------------|
A|---------------------------------------------------------------------------|
E|---------------------------------------------------------------------------|

e|---------------------------------------------------------------------------|
B|---------------------------------------------------------------------------|
G|----8h11p8-------8h11p8-------8h11p8-------8h11p8--------------------------|
D|7h10------10-7h10------10-7h10------10-7h10------10------------------------|
A|---------------------------------------------------------------------------|
E|---------------------------------------------------------------------------|

e|---------------------------------------------------------------------------|
B|---------------------------------------------------------------------------|
G|---7h8p7-----7h8p7-----7h8p7-----7h8p7-------------------------------------|
D|5h8-----8-5h8-----8-5h8-----8-5h8-----8------------------------------------|
A|---------------------------------------------------------------------------|
E|---------------------------------------------------------------------------|

e|---------------------------------------------------------------------------|
B|---------------------------------------------------------------------------|
G|---5h8p5-----5h7p5-----5h8p5-----5h7p5-------------------------------------|
D|4h7-----7-4h7-----7-4h7-----7-4h7-----7------------------------------------|
A|---------------------------------------------------------------------------|
E|---------------------------------------------------------------------------|

0:55-1:07
e|--------------------|---------------------------------------------------|
B|--------------------|---------------------------------------------------|
G|-------3x-----------|---------------------------------------------------|
D|---5-8-7-4----------|---5-8-7-4-----------------------------------------|
A|1015-8-7-4--5410141-|1015-8-7-4--541014---------------------------------|
E|1015-8-7-4--5410141-|1015-8-7-4--541014---------------------------------|
  ...         .......  ...         ......

1:08-1:25
e|---------------------------------------------------------------------------|
B|---------------------------------------------------------------------------|
G|---------------------------------------------------------------------------|
D|-------------------------------------------------------------5-8-7-4-------|2x
A|0-0-0-0000-0000-00-00-0000000-0000-0-0-0-0000-0000--00-00-00---------------|
E|1-1-1-1111-1111-11-11-1111111-1111-1-1-1-1111-1111--11-11-11-5-8-7-4-------|
  . . . .... .... .. .. ....... .... . . . .... ....  .. .. ..

1:25-1:42
e|---------------------------------------------------------------------------|
B|-------------------------------2x------------------------------------------|
G|----------------let-each-ring-out-the-second-time--------------------------|
D|---------------------------------------------------------------------------|
A|0000-0000-0000--0-0000-0000-0000--0-0000-0000-0000--0-0000-0000-0000-------|
E|1111-1111-1111--1-1111-1111-1111--1-1111-1111-1111--1-1111-1111-1111-------|
  .... .... ....  . .... .... ....  . .... .... ....  . .... .... ....

1:43-2:19
e|-----------------------------------------------------------------------------------|
B|-----------------------------------------------------------------------------------|
G|-----------------------------------------------------------------8h11p8------------|
D|5-----5-5-----5-4-----4-8888777755554444-1-----1-------------7h10------10p7--------|2x
A|-------------------------------------------------5-----5--6h9----------------------|
E|-85858-8-85858-8-74747-7------------------41414-4-30303-3--------------------------|
   ..... ..... . ..... .                  ..... . ..... .

e|--------------------------------------------------------------------------|
B|--------------------------------------------------------------------------|
G|---------------------------------------------------------8h11p8-----------|
D|5-----5-5-----5-4-----4-4-----4-1-----1-------------7h10------10p7--------|2x
A|----------------------------------------5-----5--6h9----------------------|
E|-85858-8-85858-8-74747-7-74747-7-41414-4-30303-3--------------------------|
   ..... . ..... . ..... . ..... . ..... . ..... .

2:20
e|---------------------------------------------------------------------------|
B|---------------------------------------------------------------------------|
G|---------------------------------------------------------------------------|
D|5-0-5-8t-5-0-5-8t-7t-5t--------7t------------------------------------------|
A|5-0-5----5-0-5---------------------------6t-5t-3t--------------------------|
E|5-0-5----5-0-5----------4t0t4t----4t0t1t-----------------------------------|

2:23-2:49
e|---------------------------------------------------------------------------|
B|---------------------------------------------------------------------------|
G|---------------------------------------------------------------------------|
D|------8t-------8t-7t-5t--------7t------------------------------------------|
A|-----------------------------------------6t-5t-3t--------------------------|
E|5t0t5----5t0t5----------4t0t4t----4t0t1t-----------------------------------|

2:50-3:04
intro riff: 1x
played slightly faster

3:05-4:02
e|-------------------------------|6~~~~~6~~~~~6~~~~~6~~~~~6~~~~6-5~~~~~5~~~~~5~~~~~5~~~~~5~~~~5--|
B|---------------------------------|--8~~~~~8~~~~~8~~~~~8~~~~~8~~~~~~8~~~~~8~~~~~8~~~~~8~~~~~8~~~|
G|--------------2x-----------------|----8~~~~~8~~~~~8~~~~~8~~~~~8~~~~~~7~~~~~7~~~~~7~~~~~7~~~~~7~|
D|---------------------------------|-------------------------------------------------------------|
A|0000--0000-0000--0000--0000-0000-|---------------------------4x--------------------------------|
E|1111--1111-1111--1111--1111-1111-|-------------------------------------------------------------|
  ....  .... ....  ....  .... ....

4:03-4:20
e|-----------------------------------------------------------------------------------|
B|-----------------------------------------------------------------------------------|
G|-----------------------------------------------------------------8h11p8------------|
D|5-----5-5-----5-4-----4-8888777755554444-1-----1-------------7h10------10p7--------|2x
A|-------------------------------------------------5-----5--6h9----------------------|
E|-85858-8-85858-8-74747-7------------------41414-4-30303-3--------------------------|

solo pt.1
e|---------------------------------------------------------------------------------|
B|---------------------------------------------------------------------------------|
G|12~-12-12h14p12-15-14-12-11b-12-11-----------------------------------------------|
D|-----------------------------------13-10-12~-12-13-12-10-12-10-8-7b-5-4-5-5/8-7--|
A|---------------------------------------------------------------------------------|
E|---------------------------------------------------------------------------------|

e|----------------------------------------------------------------------------------------|
B|----------------------------------------------------------------------------------------|
G|15~-15-15h17p15-19-17-15-14b-15-14------------------------------------------------------|
D|-----------------------------------17-13-15-15-17-15-13-14-13-12------------------------|
A|-----------------------------------------------------------------15b-13-12-13-13/17-15--|
E|----------------------------------------------------------------------------------------|

solo pt.2
(sorry, no sweeping)
e|--------------------------------------------------------|
B|--------------------------------------------------------|
G|--------------------------------------------------------|
D|--------------------------------------------------------|2x
A|5-5-5555-5-5-4-444-4-4-5-1-1-111-1-1-0-000-1-4-0-4/7-5--|
E|5-5-5555-5-5-4-444-4-4-5-1-1-111-1-1-0-000-1-4-0-4/7-5--|
      .... . .   ... . .       ... . .   ... .   .

THE END!!!!
comments
print report bad tab
4 comments total. Showing first comments.
0 reply
RetRegis wrote on November 24 2011, 07:29 am

Could you also tab the other guitars?

0 reply
RetRegis wrote on November 24 2011, 07:29 am

Besides that awesome tab!

0 reply
minkar_man72 wrote on November 29 2011, 07:58 pm

if your talking about the sweeps in the solo i cant sorry? and thanks!

I want to post or [tab]
guest
You may want to rate the tab now too:
select rating
Please do not post tabs as comments. Select "correction" instead!