Oops, an error
Loading. Please wait.

Cast From Perfection Tab

826 views 3 this week
no commentswrite comment
1 2 3 4 5
please rate
add to favorites
launch autoscroll
font size
0
reset
how to read this tab
guitar tuner
Tab Pro tools
  • play this tab
  • loop segment
  • change instrument
  • show fretboard
  • metronome
×
Best way to learn
"Cast From Perfection"
Autoscroll
slow
fast
+/-
esc
set tempo
stop
Contributor
Difficulty
Tuning
intermediate
A E A D F# B
                             Chelsea Grin
                         Cast From Perfection

Drop A:

   B---------------------------------------------|
   F#--------------------------------------------|
   D---------------------------------------------|   (x4)
   A-------2-----2-1-2-----2-----2-1--6ph--------|
   E---0-2-2-0-2-2-1-2-0-2-2-0-2-2-1-------------|
   A---0-2---0-2-------0-2---0-2-----------------|
       * *   * *       * *   * *

   B----------------------------------|
   F#---------------------------------|
   D----------------------------------|    (x4)
   A----------------------------------|
   E---0-2-2t--0-2-5t--0-3-2-1--------|
   A---0-2-----0-2-----0-3-2-1--------|
       * *     * *     * * * *

   B----------------------------------|
   F#---------------------------------|
   D----------------------------------|    (x4)
   A----------------------------------|
   E---0-2-3t--0-2-6t--0-3-2-1--------|
   A---0-2-----0-2-----0-3-2-1--------|
       * *     * *     * * * *

   B---------------------------------------------|
   F#--------------------------------------------|
   D---------------------------------------------|    (x4)
   A-------2-----2-1-2-----2-----2-1--6ph--------|
   E---0-2-2-0-2-2-1-2-0-2-2-0-2-2-1-------------|
   A---0-2---0-2-------0-2---0-2-----------------|
       * *   * *       * *   * *

   B------------------------------------------|
   F#-----------------------------------------|
   D------------------------------------------|
   A---0~----1~----555---0~----1~----555------|
   E---0~----1~----555---0~----1~----555------|
   A---0~----1~----555---0~----1~----555------|
                   ***               ***

   B------------------------------------------------------|
   F#-----------------------------------------------------|
   D------------------------------------------------------|    (x2)
   A------------0~-------------------1~----------555------|
   E---000---0--0~--0---0---111---1--1~--1---1---555------|
   A---000---0--0~--0---0---111---1--1~--1---1---555------|
       ***   *      *   *   ***   *      *   *   ***


   B--------------------------------------------------------------------|
   F#-------------------------------------------------------------------|
   D--------------------------------------------------------------------|
   A--------------------------------------------------------------------|
   E---000--000---000---000-000-000-000-000-000---000--000---000--------|
   A---000--000---000---000-000-000-000-000-000---000--000---000--------|
       ***  ***   ***   *** *** *** *** *** ***   ***  ***   ***

   B------------------------|
   F#-----------------------|
   D------------------------|
   A------------------------|
   E---000-000-000-000------|
   A---000-000-000-000------|
       *** *** *** ***

   B--------------------------------------------------------------------|
   F#-------------------------------------------------------------------|
   D--------------------------------------------------------------------|
   A--------------------------------------------------------------------|
   E---111--111---111---111-111-111-111-111-111---111--111---111--------|
   A---111--111---111---111-111-111-111-111-111---111--111---111--------|
       ***  ***   ***   *** *** *** *** *** ***   ***  ***   ***

   B------------------------|
   F#-----------------------|
   D------------------------|
   A------------------------|
   E---111-111-111-111------|
   A---111-111-111-111------|
       *** *** *** ***


   B-----------------------------------|
   F#----------------------------------|
   D-----------------------------------|
   A-----------------------------------|
   E---1~--11--1~--11--1~--1~--11------|
   A---1~--11--1~--11--1~--1~--11------|
       *   **  *   **  *   *   **

   B----------------------------------------------------------|
   F#---------------------------------------------------------|
   D----------------------------------------------------------|
   A----------------------------------------------------------|
   E---1~--11-11--1~--11---1~--11-11--1~--11--1~--11-11-------|
   A---1~--11-11--1~--11---1~--11-11--1~--11--1~--11-11-------|
       *   ** **  *   **   *   ** **  *   **  *   ** **

   B---------------------------------------------|
   F#--------------------------------------------|
   D---------------------------------------------|   (x4)
   A-------2-----2-1-2-----2-----2-1--6ph--------|
   E---0-2-2-0-2-2-1-2-0-2-2-0-2-2-1-------------|
   A---0-2---0-2-------0-2---0-2-----------------|
       * *   * *       * *   * *

   B----------------------------------|
   F#---------------------------------|
   D----------------------------------|    (x4)
   A----------------------------------|
   E---0-2-2t--0-2-5t--0-3-2-1--------|
   A---0-2-----0-2-----0-3-2-1--------|
       * *     * *     * * * *

   B----------------------------------|
   F#---------------------------------|
   D----------------------------------|    (x4)
   A----------------------------------|
   E---0-2-3t--0-2-6t--0-3-2-1-0------|
   A---0-2-----0-2-----0-3-2-1-0------|
       * *     * *     * * * * *
comments
We did not receive enough feedback on this tab! Please rate:
print report bad tab
1 2 3 4 5
I want to post or [tab]
guest
You may want to rate the tab now too:
select rating
Please do not post tabs as comments. Select "correction" instead!