Oops, an error
Loading. Please wait.

Cheyne Stokes Tab

version 2
version 2

Whole song

Interactive

3,822 views 12 this week
no commentswrite comment
1 2 3 4 5
accurate
x 7
add to favorites
launch autoscroll
font size
0
reset
how to read this tab
guitar tuner
Tab Pro tools
  • play this tab
  • loop segment
  • change instrument
  • show fretboard
  • metronome
Autoscroll
slow
fast
+/-
esc
set tempo
stop
Contributor
Difficulty
Tuning
intermediate
A E A D F# B
Alright, this is my first tab being uploaded.
If you guys want more, I have quite a few songs tabbed in guitar pro.

This really isn't a hard song. The sweeping might be challenging at first but just 
keep trying, you'll get it!
It also helps to have a mastery of pinch harmonics.

They play on a seven string, tuning 7=A 6=E 5=A 4=D 3=G 2=B 1=e,
but I'm broke :( so if you're like me, and own only six strings, say hello to your tab!

Tuning: 6=A 5=E 4=A 3=D 2=F# 1=B

Song: Cheyne Stokes
Album: Desolation of Eden
Artist: Chelsea Grin
Length: 2:50

Tabbed by Fritz Lueck (Fritztafer), Seattle WA

Intro: 0:00-0:01
B |----------------|
F#|----------------|
D |----------------|
A |---------3------|
E |-0-3-2-1-3-[5]b-|
A |-0-3-2-1--------|
PM  * * * *

1st Riff: 0:02-0:08
B |------------------------|\
F#|------------------------| \
D |------------------------|  \/ 
A |------------------------|  /\2x
E |-0-3-2-1-0------3-2-1-0-| /
A |-0-3-2-1-0------3-2-1-0-|/
PM  * * * * *      * * * *

Mod. of 1st Riff: 0:09-0:15
B |---------------------------|\
F#|---------------------------| \
D |---------------------------|  \/ 
A |---------------------------|  /\2x
E |-0-3-2-1-0-1t---3-2-1-0-2t-| /
A |-0-3-2-1-0------3-2-1-0----|/
PM  * * * * *      * * * *

Transition: 0:15-0:20
B |--------------------------------------------|
F#|--------------------------------------------|
D |--------------------------------------------|
A |--------------------------------------------|
E |-0--0--0--00-00-0-[3]b-0-0-0-00-00-0-[2]----|
A |-1--1--1--00-00-0------0-0-0-00-00-0----[3]-|
PM  *  *  *  ** ** *      * * * ** ** *

2nd Riff: 0:21-0:33
B |-----------------------------------|\
F#|-----------------------------------| \
D |-----------------------------------|  \/
A |-----3t--2t------------------------|  /\4x
E |-0-0-5t--4t-6-5--5-3--0-1-3-1-[3]b-| /
A |-0-0--------6-5--5-3--0-1-3-1------|/
PM  * *        * *  * *  * * * *

Transition: 0:34-0:35
B |---------|
F#|---------|
D |---------|
A |---------| (hold note then bend fast)
E |-[5]~~~b-|
A |---------|
PM                           ________________________________
                            /Mute Strings after each triplet/
Breakdown: 0:36-0:48       /                      _________/
B |-----------------------/----------------------/--------------------|\
F#|----------------------/----------------------/---------------------| \
D |---------------------/----------------------/----------------------|  \/
A |--------------------/----------------------/-----------------------|  /\2x
E |-000-000------0-0-0-000-000-000-000-000-000------0-0-0-------------| /
A |-000-000-[3]b-0-0-0-000-000-000-000-000-000-[3]b-0-0-0-0t-4t-3t-1t-|/
PM  *** ***      * * * *** *** *** *** *** ***      * * *

Transition: 0:49-0:52
B |-------------|
F#|-------------|
D |-------------|
A |-------------|
E |-0--0---0-0-0|
A |-0--0---0-0-0|
PM  *  *   * * *

3rd Riff: 0:53-1:07
B |----------------|\
F#|----------------| \
D |----------------|  \/
A |----------------|  /\4x
E |-0--0---000-000-| /
A |-0--0---000-000-|/
PM  *  *   *** ***

Mod. of 3rd Riff: 1:08-1:21
B |---------------------------18h22p18----------------------22p18------18h22p18------18-|\
F#|-------------------------20--------20-------------------------20--20--------20--20---| \
D |-----------------------19------------19-------------------------19------------19-----|  \/
A |---------------------20----------------20--------------------------------------------|  /\
E |-0--0---000-000-17h22---------------------0--0---000-000-----------------------------| /
A |-0--0---000-000---------------------------0--0---000-000-----------------------------|/
PM  *  *   *** ***                           *  *   *** ***
(the second time at the end of this
2x - do 18/23)

Transition: 1:22-1:26
B |---|
F#|---|
D |---|
A |-0-|
E |-0-|
A |-0-|
PM

Intro to 4th Riff: 1:27-1:38
B |------------------------------------------------|\
F#|------------------------------------------------| \
D |------------------------------------------------|  \/
A |-------------------2t---------------------------|  /\2x
E |----0t-3t-0t----4t-------0t-3t-0t----4t-0-3-2-1-| /
A |-0t----------3t-------0t----------3t----0-3-2-1-|/
PM                                         * * * *

4th Riff: 1:39-1:57                 
B |-------------------------------------------|\
F#|-------------------------------------------| \
D |-------------------------------------------|  \/
A |-------------------2t----------------------|  /\3x
E |----0t-3t-0t----4t-------0t-3t-0t----4t----| /
A |-0t----------3t-------0t----------3t----2t-|/
PM                                         ||
                                           || Altrenate Ending 3rd time
                                          / |
  Altrenate Ending_______________________/ /
B |---------|_____________________________/
F#|---------|                                
D |---------|
A |---------|
E |-0-3-2-1-|
A |-0-3-2-1-|
PM  * * * *

5th Riff: 1:58-2:13
B |---------------------------------------------------|\
F#|---------------------------------------------------| \
D |---------------------------------------------------|  \/
A |---------------------------------------------------|  /\2x
E |-----------------------------------------000-000-0-| /
A |-0-1-3-0-4-3-0-1-0-1-3-0-4-3-0-1-0-1-3-0-000-000-0-|/
PM                                          *** *** *

Breakdown: 2:14-2:41
B |----------------|\
F#|----------------| \
D |----------------|  \/       There is parts with the riff above faded out in it.
A |----------------|  /\7x     If you wanna play those, you can figure it out.
E |-000-000--0-000-| /
A |-000-000--0-000-|/
PM  *** ***  * ***

Outro: 2:42-2:50
B |-------------------|
F#|-------------------|
D |-------------------|
A |---------3-------0-|
E |-0-3-2-1-3-[5]b--0-|
A |-0-3-2-1---------0-|
PM  * * * *         *

~~~~~~~~~~~~~~~~~~~~~~~~~
|KEY|KEY|KEY|KEY|KEY|KEY|
~~~~~~~~~~~~~~~~~~~~~~~~~
PM = Palm Mute
[#] = Pinch harmonic
b = Bend
t = Tremelo picking
~ = Hold note
/ = slide up
\ = slide down
comments
print report bad tab
I want to post or [tab]
guest
You may want to rate the tab now too:
select rating
Please do not post tabs as comments. Select "correction" instead!