Oops, an error
Loading. Please wait.

Crewcabanger Bass Tab

version 1
version 1

Whole song

Interactive

8,629 views 18 this week
6 commentsread comments
1 2 3 4 5
1 last vote to show rating
add to favorites
launch autoscroll
font size
0
reset
guitar tuner
×
Best way to learn
"Crewcabanger"
Autoscroll
slow
fast
+/-
esc
set tempo
stop
Author
Difficulty
Tuning
  follow
intermediate
B F# B E
0.00-0.06
|--------------------------------------|
|--------------------------------------|
|--------------------------------------|
|--------------------------------------|
|-0-2-1-4-3-0-2-3-0-2-1-4-3-0-2-1------|

0.07-0.13
|--------------------------------------|
|--------------------------------------|
|--------------------------------------|
|--------------------------------------|
|-0-2-1-4-3-0-2-3-0-2-1-4-3-0-2-1------|

0.14-0.29
|--------------------------------------|
|--------------------------------------|
|--------------------------------------|
|--------------------------------------|
|-0-000-0-0-0-0-0-0-0-0----------------|

0.56-1.24
|-------------------------------------------------------------|
|-------------------------------------------------------------|
|-------------------------------------------------------------|
|-----5---------5---------4---------4---------1--------1------|
|-5-8----8--5-8----8--4-7----7--4-7----7--1-4---4--1-4----4---|

|------------------------------------|
|------------------------------------|
|------------------------------------|
|-----0---------0--------------------|
|-0-3----3--0-3----3---0-0--0-0------|

1.26-1.39
|------------------------------------|
|------------------------------------|
|------------------------------------|
|------------------------------------|
|-0-0-0-0----0-0----000--------------|

|------------------------------------|
|------------------------------------|
|------------------------------------|
|------------------------------------|
|-0-0-0-0----0-0----000--000---------|

1.43-1.55
|------------------------------------|
|------------------------------------|
|------------------------------------|
|------------------------------------|
|-0-0-0-0----0-0----000--------------|

|------------------------------------|
|------------------------------------|
|------------------------------------|
|-0-0-0-0----0-0----000--000---------|

Hit The Lights.....Its... Boner Time!
2.26-2.52
|------------------------------------|
|------------------------------------|
|------------------------------------|
|------------------------------------|
|-1-1-1-1-1-1-1-1-1-1----------------|

2.53-END
|------------------------------------|
|------------------------------------|
|------------------------------------|
|------------------------------------|
|------------------------------------|
Not To Sure The Notes For The Sweeping Outro. Sorry
I Just Play Open Notes On The Top String.
Suggest correction
Give kudos to tab author, rate the tab!
1 2 3 4 5
comments
print report bad tab
6 comments total. Showing first comments.
0 reply
petey1993 52 Jul 10, 2010 06:45 AM

whats the tuning to this?

0 reply
DylanPage 37 Jul 12, 2010 05:53 PM

its in drop b

0 reply
xxchristianxx 58 Aug 28, 2010 04:12 PM

this song is actually in drop A.
some parts are wrong. most of it is dead on. check out my tab when it comes up. you can take the parts you dont have or are wrong just give me and the guy who did the power tab credit.

guest
You may want to rate the tab now too:
select rating
Wanna post a correction for this tab? Suggest correction