Oops, an error
Loading. Please wait.

Crewcabanger Tab

version 1
version 1

Whole song

Interactive

42,592 views 54 this week
5 commentsread comments
1 2 3 4 5
x 11
add to favorites
launch autoscroll
font size
0
reset
how to read this tab
guitar tuner
Autoscroll
slow
fast
+/-
esc
set tempo
stop
Help us to improve Ultimate-Guitar.com Take our survey!
×
Author
Difficulty
Tuning
intermediate
A E A D F# B
Song: Crewcabanger
Artist: Chelsea Grin
Tuning: Drop A - AEADGBE

Tabbed by Matt Mulartschuk.


Tab legend:
h - hammer on
p - pull off
s - slide
[x] - pinch harmonic
" - tremolo pick

0.00 - 0.06
|-------------------------------------|
|-------------------------------------|
|-------------------------------------|
|-------------------------------------|
|--0-2-1-4-3-0-2-3-0-2-1-4-3-0-2-1----|
|--0-2-1-4-3-0-2-3-0-2-1-4-3-0-2-1----|
|--0-2-1-4-3-0-2-3-0-2-1-4-3-0-2-1----|
   * * * * * * * * * * * * * * * *


0.07 - 0.13
|-------------------------------------|
|-------------------------------------|
|-------------------------------------|
|-------------------------------------|
|-------------------------------------|
|-------------------------------------|
|--0-2-1-4-3-0-2-3-0-2-1-4-3-0-2-1----|


0.14 - 0.29
|------------------------------------|
|------------------------------------|
|------------------------------------|
|------------------------------------|
|-0-2-1-4-3-0-2-3-0-2-1-4-3-0-2-1----|
|-0-2-1-4-3-0-2-3-0-2-1-4-3-0-2-1----|
|-0-2-1-4-3-0-2-3-0-2-1-4-3-0-2-1----|
  * * * * * * * * * * * * * * * *


0.30 - 0.56
|-------------------------------------------------------------------------------|
|-------------------------------------------------------------------------------|
|-------------------------------------------------------------------------------|
|-------------------------------------------------------------------------------|
|-------------------------------------------------------------------------------|
|--------5"------------5"-----------4"-----------4"-----------1"----------1"----|
|--5"-8"----8"---5"-8"----8"--4"-7"----7"--4"-7"----7"--1"-4"----4"--1"-4"---4"-|


|----------------------------------------|
|----------------------------------------|
|----------------------------------------|
|----------------------------------------|
|----------------------------------------|
|--------0"-----------0------0-0---0-0---|
|--0"-3"----3"--0"-3"---3"---0-0---0-0---|
                             * *   * *

0.57 - 1.21
|-------------------------------------------------------------------------------------------|
|-------------------------------------------------------------------------------------------|
|-------------------------------------------------------------------------------------------|
|-------------------------------------------------------------------------------------------|
|-------------------------------------------------------------------------------------------|
|------5---------5---------4---------4---------1---------1-------------------------0-0--0-0-|
|--5-8---8---5-8---8---4-7---7---4-7---7---1-4---4---1-4---4---0-3-7-3---0-3-7-3---0-0--0-0-|


1.24 -1.25
Left:
|-----------|
|-----------|
|-----------|
|-----------|
|-----------|
|-3-3-3-----|
|-3-3-3-----|
  * * *


Right:
|------|
|------|
|------|
|------|
|------|
|-2-2--|
|-2-2--|
  * *


1.26 - 1.39
|--------------------------|
|--------------------------|
|--------------------------|
|--------------------------|
|--------------------------|
|--0-0-0-0----0-0----000---|
|--0-0-0-0----0-0----000---|
   * * * *    * *    ***

|-----------------------------|
|-----------------------------|
|-----------------------------|
|-----------------------------|
|-----------------------------|
|--0-0-0-0----0-0--000--000---|
|--0-0-0-0----0-0--000--000---|
   * * * *    * *  ***  ***

1.39 - 1.42
Tremolo bar. You can also just slide up to 8 on the bottom string and then back to 0 to 
the same effect


1.43  - 1.55
|--------------------------|
|--------------------------|
|--------------------------|
|--------------------------|
|--------------------------|
|--0-0-0-0----0-0----000---|
|--0-0-0-0----0-0----000---|
   * * * *    * *    ***

|-----------------------------|
|-----------------------------|
|-----------------------------|
|-----------------------------|
|-----------------------------|
|--0-0-0-0----0-0--000--000---|
|--0-0-0-0----0-0--000--000---|
   * * * *    * *  ***  ***

1.56 - 2.22
|---------------------------------------------------------------------------------|
|---------------------------------------------------------------------------------|
|---------------------------------------------------------------------------------|
|---------------------------------------------------------------------------------|
|---------------------------------------------------------------------------------|
|--------5"------------5"-----------4"-----------4"-----------1"-----------1"-----|
|--5"-8"----8"---5"-8"----8"--4"-7"----7"--4"-7"----7"--1"-4"----4"--1"-4"----4"--|


|----------------------------------------|
|----------------------------------------|
|----------------------------------------|
|----------------------------------------|
|----------------------------------------|
|--------0"-----------0------0-0---0-0---|
|--0"-3"----3"--0"-3"---3"---0-0---0-0---|

Hit the lights....its...BONER TIME

2.26 - 2.52
|-----------------------------|
|-----------------------------|
|-----------------------------|
|-----------------------------|
|--5-5-5-5-5-5-5-5-5-5--------|
|--4-4-4-4-4-4-4-4-4-4---[5]--|
|--5-5-5-5-5-5-5-5-5-5--------|
   *

|----------------------------------|
|----------------------------------|
|----------------------------------|
|----------------------------------|
|-5-5-5-5-5-5-5-5-5----------------|
|-4-4-4-4-4-4-4-4-4---7"-4"-6"-3"--|
|-5-5-5-5-5-5-5-5-5----------------|
  * * * * * * * * *   *  *  *  *

|-------------------------------------------|
|-------------------------------------------|
|-------------------------------------------|
|-------------------------------------------|
|-5-5-5-5-5-5---------5-5-5-----------------|
|-4-4-4-4-4-4---------4-4-4--10"-7"-9"-6"---| 
|-5-5-5-5-5-5---[5]---5-5-5-----------------|    
  * * * * * *         * * *  *   *  *  *        

2.53 - END
|------------------13h17s18s17-13----------------------13h17s18s17-13----------|
|---------------15----------------15----------------15----------------15-------|
|------------14----------------------14----------14----------------------14----|
|---------15----------------------------------15-------------------------------|
|---12h17-------------------------------12h17----------------------------------|
|------------------------------------------------------------------------------|
|------------------------------------------------------------------------------|


|----------------12h16s17s16-12-------16s17s16-12-------16s17s16-12-----------------|
|-------------14----------------14----------------14----------------14--------------|
|----------13----------------------13----------------13----------------13-----------|
|-------14--------------------------------------------------------------------------|
|-12h16-----------------------------------------------------------------------------|
|-----------------------------------------------------------------------------------|
|-----------------------------------------------------------------------------------|


Sweeping Harmony:

|------------------10h13s15s13-10----------------------10h13s15s13-10----------|
|---------------11----------------11----------------11----------------11-------|
|------------10----------------------10----------10----------------------10----|
|---------12----------------------------------12-------------------------------|
|---10h13-------------------------------10h13----------------------------------|
|------------------------------------------------------------------------------|
|------------------------------------------------------------------------------|


|----------------9h12s13s12p12-9-------12s13s12-9---------12s13s12-9-----------|
|-------------10-----------------10---------------10-----------------10--------|
|----------9------------------------9----------------9------------------9------|
|-------11---------------------------------------------------------------------|
|--9p12------------------------------------------------------------------------|
|------------------------------------------------------------------------------|
|------------------------------------------------------------------------------|
Suggest correction
comments
print report bad tab
5 comments total. Showing first comments.
0 reply
jett420 10 Jul 08, 2010 11:53 PM

on the tab you have 7 strings, but on the tuning, you have it for drop a on a 6 string, other than that its good

0 reply
|Matt| 252 Jul 16, 2010 02:38 PM

Yeah, theres no 7 string thing under tuning. Its rather confusing!

-1 reply
brandon_81 10 Sep 05, 2015 07:24 PM

i know this is late, but the standard tuning for a 7 string is drop a.
AEADGBE

guest
You may want to rate the tab now too:
select rating
Wanna post a correction for this tab? Suggest correction