Oops, an error
Loading. Please wait.

Crewcabanger Bass Tab

version 2
version 2

Whole song

Interactive

2,760 views 6 this week
1 commentread comment
1 2 3 4 5
2 more votes to show rating
add to favorites
launch autoscroll
font size
0
reset
guitar tuner
Autoscroll
slow
fast
+/-
esc
set tempo
stop
Help us to improve Ultimate-Guitar.com Take our survey!
×
Author
Difficulty
intermediate
/  =  Slide Up Neck
\  =  Slide Down Neck
#  =  Hold note


INTRO
E|0-2-1-4-3-0-2-3-0-2        ----| X4
A|-------------------------------|
D|-------------------------------|
G|-------------------------------|

VERSE 1

E|0-1-2-0-0-1-0   ----| X4
A|--------------------|
D|--------------------|
G|--------------------|

VERSE 2

E|0-00000-00-000         ----| X7
A|---------------------------|
D|---------------------------|
G|---------------------------|

VERSE 3

E|5-8--8-5-8--8-4-7--7-4-7--7-1-4--4-1-4--4-0-3--3-0-3---|   {X3
A|---5------5------4------4------4------4-------0------0-|
D|-------------------------------------------------------|
G|-------------------------------------------------------|

BRIDGE
E|222-111|
A|-------|
D|-------|
G|-------|

BREAKDOWN (You stupid trick, I will end this)
E|2-2-2-2--1-1--0-0      ----| X4
A|---------------------------|
D|---------------------------|
G|---------------------------|

BRIDGE
E|2/9--9\7|
A|--------|
D|--------|
G|--------|

E|2-2-2-2--1-1--0-0      ----| X4
A|---------------------------|
D|---------------------------|
G|---------------------------|

E|5-8--8-5-8--8-4-7--7-4-7--7-1-4--4-1-4--4-0-3--3-0-3---|   { X2
A|---5------5------4------4------4------4-------0------0-|
D|-------------------------------------------------------|
G|-------------------------------------------------------|

-=- HIT THE LIGHTS, IT'S BONER TIME! -=-

E|22-222-222-222-222--22-222-222-211-00   ---|X4
A|-------------------------------------------|
D|-------------------------------------------|
G|-------------------------------------------|

E|0#####0####0####
A|----------------|
D|----------------|
G|----------------|
Suggest correction
Give kudos to tab author, rate the tab!
1 2 3 4 5
comments
print report bad tab
1 comment total.
0 reply
xxchristianxx 58 Aug 28, 2010 08:18 PM

alot of this tab it wrong. its in Drop A. When my tab it up, and it should be in a few days, you can take any corrections you want, just give me and the guy who created the Power Tab version credit.

guest
You may want to rate the tab now too:
select rating
Wanna post a correction for this tab? Suggest correction