Oops, an error
Loading. Please wait.

Crewcabanger Tab

version 3
version 3

Whole song

Interactive

79 views 3 this week
no commentswrite comment
1 2 3 4 5
3 more votes to show rating
add to favorites
launch autoscroll
font size
0
reset
how to read this tab
guitar tuner
Autoscroll
slow
fast
+/-
esc
set tempo
stop
Help us to improve Ultimate-Guitar.com Take our survey!
×
Author
Difficulty
intermediate
Crewcabanger - Chelsea Grin
Tabbed by: Aenvir
E-mail: Aaron77524@gmail.com

Crewcabanger by Chelsea Grin from their Self-Titled EP.

This whole tab is for a 7 String in drop A tuning.

*******************************************************************************

Rhythm Guitar

[Intro]

(0:00-0:07)
E|------------------|
B|------------------|
G|------------------|
D|------------------| x4
A|--0-2-1-4-3-0-2-3-|
E|--0-2-1-4-3-0-2-3-|
A|--0-2-1-4-3-0-2-3-|
 PM . . . . . . . .

(0:08-0:14)
E|------------------|
B|------------------|
G|------------------|
D|------------------| x4
A|------------------|
E|------------------|
A|--0-2-1-4-3-0-2-3-|

[Verse]
(0:15-0:30)
E|------------------|
B|------------------|
G|------------------|
D|------------------| x4
A|--0-2-1-4-3-0-2-3-|
E|--0-2-1-4-3-0-2-3-|
A|--0-2-1-4-3-0-2-3-|
 PM . . . . . . . .

(0:30-0:57)
E|-------------------------------------------------------------------------------------------|
B|-------------------------------------------------------------------------------------------|
G|-------------------------------------------------------------------------------------------|
D|-------------------------------------------------------------------------------------------|
A|--5--5-5-5-5-5-5-5-5-5-5---444-4-4-4-4-4-4-4-4---111-1-1-1-1-1-1-1-1---000-0-0-0-0-0-0-0-0-|
E|--5--5-5-5-5-5-5-5-5-5-5---444-4-4-4-4-4-4-4-4---111-1-1-1-1-1-1-1-1---000-0-0-0-0-0-0-0-0-|
A|--5--5-5-5-5-5-5-5-5-5-5---444-4-4-4-4-4-4-4-4---111-1-1-1-1-1-1-1-1---000-0-0-0-0-0-0-0-0-|
 PM .  . . . . . . . . . .   ... . . . . . . . .   ... . . . . . . . .   ... . . . . . . . .

E|-------------------------------------------------------------------------------------------|
B|-------------------------------------------------------------------------------------------|
G|-------------------------------------------------------------------------------------------|
D|-------------------------------------------------------------------------------------------|
A|--5--555-5-5-5-5-5-5-5-5---444-4-4-4-4-4-4-4-4---111-1-1-1-1-1-1-1-1---000-0-0-0-0-0-0-0-0-|
E|--5--555-5-5-5-5-5-5-5-5---444-4-4-4-4-4-4-4-4---111-1-1-1-1-1-1-1-1---000-0-0-0-0-0-0-0-0-|
A|--5--555-5-5-5-5-5-5-5-5---444-4-4-4-4-4-4-4-4---111-1-1-1-1-1-1-1-1---000-0-0-0-0-0-0-0-0-|
 PM .  ... . . . . . . . .   ... . . . . . . . .   ... . . . . . . . .   ... . . . . . . . .

(0:58-1:24)
E|------------------------------------------|
B|------------------------------------------|
G|------------------------------------------|
D|------------------------------------------| x2
A|--5~-----4~----1~----0~------0~-----------|
E|--5~-----4~----1~----0~------0~---000-0-0-|
A|--5~-----4~----1~----0~------0~---000-0-0-|
 PM                                 ... . .

[Interlude]
(0:58-1:25)
E|--------|
B|--------|
G|--------|
D|--------| x2
A|--3-3-3-|
E|--3-3-3-|
A|--3-3-3-|
 PM . . .

[Verse]
(1:27-1:40)
E|-----------------------------------------------|
B|-----------------------------------------------|
G|-----------------------------------------------|
D|-----------------------------------------------| x2
A|-----------------------------------------------|
E|--0-0-0-0---0-0---000--0-0-0-0---0-0--000--000-|
A|--0-0-0-0---0-0---000--0-0-0-0---0-0--000--000-|
 PM . . . .   . .   ...  . . . .   . .  ...  ...

(1:41 - 1:42)
Usage of the tremolo bar.
You can also slide up to the 8th fret on bottom A string and then return to 1st fret to get the same effect
E|-----------------|
B|-----------------|
G|-----------------|
D|-----------------|
A|-----------------|
E|-----------------|
A|-------/8\-------|

(1:43 - 1:56)
E|-----------------------------------------------|
B|-----------------------------------------------|
G|-----------------------------------------------|
D|-----------------------------------------------| x2
A|-----------------------------------------------|
E|--0-0-0-0---0-0---000--0-0-0-0---0-0--000--000-|
A|--0-0-0-0---0-0---000--0-0-0-0---0-0--000--000-|
 PM . . . .   . .   ...  . . . .   . .  ...  ...

[Chorus]
(1:57-2:23)
E|---------------------------------------------------------------|
B|---------------------------------------------------------------|
G|---------------------------------------------------------------|
D|---------------------------------------------------------------| x2
A|--------------x2-------------x2-------------x2-------------x2--|
E|--------5"-------------4"-------------1"-------------0"--------|
A|--5"-8"----8"----4"-7"----7"----1"-4"----4"----0"-3"----3"-----|

[Breakdown]
(2:24-2:53)
E|-----------------------------|\
B|-----------------------------| \
G|-----------------------------|  \
D|-----------------------------|   \
A|--5-5-5-5-5-5-5-5-5-5-5------|    \
E|--4-4-4-4-4-4-4-4-4-4-4--[5]-|     \
A|--5-5-5-5-5-5-5-5-5-5-5------|      \
 PM . . . . . . . . . . .              \
                                        \
E|-------------------------------------| \
B|-------------------------------------|  \
G|-------------------------------------|   \
D|-------------------------------------|    \
A|--5-5-5-5-5-5-5-5-5-5-5--------------|     \
E|--4-4-4-4-4-4-4-4-4-4-4--7"-4"-6"-3"-|      \
A|--5-5-5-5-5-5-5-5-5-5-5--------------|       \
 PM . . . . . . . . . . .                       \
                                                 \
E|-----------------------------|                  \
B|-----------------------------|                   \
G|-----------------------------|                    \ 
D|-----------------------------|                       2x
A|--5-5-5-5-5-5-5-5-5-5-5------|                    /
E|--4-4-4-4-4-4-4-4-4-4-4--[5]-|                   /
A|--5-5-5-5-5-5-5-5-5-5-5------|                  /
 PM . . . . . . . . . . .                        /
                                                /
E|--------------------------------------|      /
B|--------------------------------------|     /
G|--------------------------------------|    /
D|--------------------------------------|   /
A|--5-5-5-5-5-5-5-5-5-5-5---------------|  /
E|--4-4-4-4-4-4-4-4-4-4-4--10"-7"-9"-6"-| /
A|--5-5-5-5-5-5-5-5-5-5-5---------------|/
 PM . . . . . . . . . . .

[Solo & Outro]
(2:54-3:05)
E|---------------------------------|
B|---------------------------------|
G|---------------------------------|
D|---------------------------------|
A|-5~----8~--7~--4~----1~--000-000-|
E|-5~----8~--7~--4~----1~--000-000-|
A|-5~----8~--7~--4~----1~--000-000-|

E|---------------------------------|
B|---------------------------------|
G|---------------------------------|
D|---------------------------------|
A|-5~----8~--7~--4~----1~--000-000-|
E|-5~----8~--7~--4~----1~--000-000-|
A|-5~----8~--7~--4~----1~--000-000-|
 PM                        ... ...

(3:06-3:42)
E|--------------------------------------------------------|
B|--------------------------------------------------------|
G|--------------------------------------------------------|
D|--------------------------------------------------------| x3
A|--555555555555-888888-777777-444444444444-111111-000000-|
E|--555555555555-888888-777777-444444444444-111111-000000-|
A|--555555555555-888888-777777-444444444444-111111-000000-|
 PM ............ ...... ...... ............ ...... ......

*******************************************************************************

Lead Guitar
[Intro]
(0:00-0:07)
E|------------------|
B|------------------|
G|------------------|
D|------------------| x4
A|--0-2-1-4-3-0-2-3-|
E|--0-2-1-4-3-0-2-3-|
A|--0-2-1-4-3-0-2-3-|
 PM . . . . . . . .

(0:08-0:14)
E|------------------|
B|------------------|
G|------------------|
D|------------------| x4
A|------------------|
E|------------------|
A|--0-2-1-4-3-0-2-3-|

[Verse]
(0:15-0:30)
E|------------------|
B|------------------|
G|------------------|
D|------------------| x4
A|--0-2-1-4-3-0-2-3-|
E|--0-2-1-4-3-0-2-3-|
A|--0-2-1-4-3-0-2-3-|
 PM . . . . . . . .

(0:30-0:57)
E|---------------------------------------------------------------|
B|---------------------------------------------------------------|
G|---------------------------------------------------------------|
D|---------------------------------------------------------------| x2
A|--------------x2-------------x2-------------x2-------------x2--|
E|--------5"-------------4"-------------1"-------------0"--------|
A|--5"-8"----8"----4"-7"----7"----1"-4"----4"----0"-3"----3"-----|

(0:58-1:24)
E|--------------------------------------------------------------------------------|
B|--------------------------------------------------------------------------------|
G|--------------------------------------------------------------------------------|
D|--------------------------------------------------------------------------------| x2
A|--------------------------------------------------------------------------------|
E|------5---------5---------4---------1---------0---------0---------0----000--0-0-|
A|--5-8---8---5-8---8---4-7---7---1-4---4---0-3---3---0-3---3---0-3---3--000--0-0-|
 PM                                                                      ...  . .

[Interlude]
(1:26-1:26)
E|------|
B|------|
G|------|
D|------| x2
A|--2-2-|
E|--2-2-|
A|--2-2-|
 PM . .

[Verse]
(1:27-1:40)
E|-----------------------------------------------|
B|-----------------------------------------------|
G|-----------------------------------------------|
D|-----------------------------------------------| x2
A|-----------------------------------------------|
E|--0-0-0-0---0-0---000--0-0-0-0---0-0--000--000-|
A|--0-0-0-0---0-0---000--0-0-0-0---0-0--000--000-|
 PM . . . .   . .   ...  . . . .   . .  ...  ...

(1:41 - 1:42)

Usage of the tremolo bar.
You can also slide up to the 8th fret on bottom A string and then return to 1st fret to get the same effect
E|-----------------|
B|-----------------|
G|-----------------|
D|-----------------|
A|-----------------|
E|-----------------|
A|-------/8\-------|

(1:43 - 1:56)
E|-----------------------------------------------|
B|-----------------------------------------------|
G|-----------------------------------------------|
D|-----------------------------------------------| x2
A|-----------------------------------------------|
E|--0-0-0-0---0-0---000--0-0-0-0---0-0--000--000-|
A|--0-0-0-0---0-0---000--0-0-0-0---0-0--000--000-|
 PM . . . .   . .   ...  . . . .   . .  ...  ...

[Chorus]
(1:57-2:23)
E|---------------------------------------------------------------|
B|---------------------------------------------------------------|
G|---------------------------------------------------------------|
D|---------------------------------------------------------------| x2
A|--------------x2-------------x2-------------x2-------------x2--|
E|--------5"-------------4"-------------1"-------------0"--------|
A|--5"-8"----8"----4"-7"----7"----1"-4"----4"----0"-3"----3"-----|

[Breakdown]
(2:24-2:53)
E|-----------------------------|\
B|-----------------------------| \
G|-----------------------------|  \
D|-----------------------------|   \
A|--5-5-5-5-5-5-5-5-5-5-5------|    \
E|--4-4-4-4-4-4-4-4-4-4-4--[5]-|     \
A|--5-5-5-5-5-5-5-5-5-5-5------|      \
 PM . . . . . . . . . . .              \
                                        \
E|-------------------------------------| \
B|-------------------------------------|  \
G|-------------------------------------|   \
D|-------------------------------------|    \
A|--5-5-5-5-5-5-5-5-5-5-5--------------|     \
E|--4-4-4-4-4-4-4-4-4-4-4--7"-4"-6"-3"-|      \
A|--5-5-5-5-5-5-5-5-5-5-5--------------|       \
 PM . . . . . . . . . . .                       \
                                                 \
E|-----------------------------|                  \
B|-----------------------------|                   \
G|-----------------------------|                    \ 
D|-----------------------------|                       2x
A|--5-5-5-5-5-5-5-5-5-5-5------|                    /
E|--4-4-4-4-4-4-4-4-4-4-4--[5]-|                   /
A|--5-5-5-5-5-5-5-5-5-5-5------|                  /
 PM . . . . . . . . . . .                        /
                                                /
E|--------------------------------------|      /
B|--------------------------------------|     /
G|--------------------------------------|    /
D|--------------------------------------|   /
A|--5-5-5-5-5-5-5-5-5-5-5---------------|  /
E|--4-4-4-4-4-4-4-4-4-4-4--10"-7"-9"-6"-| /
A|--5-5-5-5-5-5-5-5-5-5-5---------------|/
 PM . . . . . . . . . . .

[Solo & Outro]
(2:54-3:42)
E|------------------13h17s18s17-13----------------------13h17s18s17-13----------|
B|---------------15----------------15----------------15----------------15-------|
G|------------14----------------------14----------14----------------------14----|
D|---------15----------------------------------15-------------------------------|
A|---12h17-------------------------------12h17----------------------------------|
E|------------------------------------------------------------------------------|
A|------------------------------------------------------------------------------|

E|----------------12h16s17s16-12-------16s17s16-12-------16s17s16-12-------------|
B|-------------14----------------14----------------14----------------14----------|
G|----------13----------------------13----------------13----------------13-------|
D|-------14----------------------------------------------------------------------|
A|-12h16-------------------------------------------------------------------------|
E|-------------------------------------------------------------------------------|
A|-------------------------------------------------------------------------------|

[Sweeping Harmony]
E|------------------10h13s15s13-10----------------------10h13s15s13-10----------|
B|---------------11----------------11----------------11----------------11-------|
G|------------10----------------------10----------10----------------------10----|
D|---------12----------------------------------12-------------------------------|
A|---10h13-------------------------------10h13----------------------------------|
E|------------------------------------------------------------------------------|
A|------------------------------------------------------------------------------|

E|----------------9h12s13s12p12-9-------12s13s12-9---------12s13s12-9-----------|
B|-------------10-----------------10---------------10-----------------10--------|
G|----------9------------------------9----------------9------------------9------|
D|-------11---------------------------------------------------------------------|
A|--9p12------------------------------------------------------------------------|
E|------------------------------------------------------------------------------|
A|------------------------------------------------------------------------------|


********************************************************************************

| x  Dead note
| h  Hammer-on
| p  Pull-off
| b  Bend
| /  Slide up
| \  Slide down
| ~  Let ring
| .  Palm mute
| "  Tremolo
|[x] Pinch Harmonic

********************************************************************************
Suggest correction
Give kudos to tab author, rate the tab!
1 2 3 4 5
comments
print report bad tab
guest
You may want to rate the tab now too:
select rating
Wanna post a correction for this tab? Suggest correction