Oops, an error
Loading. Please wait.

Desolation Of Eden Tab

version 1
version 1

Whole song

Interactive

16,101 views 18 this week
no commentswrite comment
1 2 3 4 5
excellent!
x 7
add to favorites
launch autoscroll
font size
0
reset
how to read this tab
guitar tuner
Autoscroll
slow
fast
+/-
esc
set tempo
stop
Help us to improve Ultimate-Guitar.com Take our survey!
×
Contributor
Difficulty
Tuning
novice
A E A D F# B
-------------------------------------------------------------------------------
		     Desolation of Eden - Chelsea Grin
-------------------------------------------------------------------------------
Tabbed by:Jaredh_d2012
Email:jaredh_d2012@hotmail.com

Tuning:Drop A (Low-High)  7-Str. AEADGBe or 6-Str. AEADGF#b


Intro is residual sound from Judgement

e|-------------------------------------------------------------------------------------|
B|-------------------------------------------------------------------------------------|
G|-------------------------------------------------------------------------------------|
D|-------------------------------------------------------------------------------------|
A|-------------------------------------------------------------------------------------|
E|-3*------3*----------2*------2*----------3*------3*----------5*------5*--------------|
A|---6*-3*---6*-3*-------5*-2*---5*-2*-------6*-3*---6*-3*-------8*-5*---8*-5*---------|X2

e|----------------------------------------------------------------------------------------------|
B|----------------------------------------------------------------------------------------------|
G|----------------------------------------------------------------------------------------------|
D|----------------------------------------------------------------------------------------------|
A|----------------------------------------------------------------------------------------------|
E|3----------3-----------2-----------2-----------3-----------3-----------5-----------4----------|
A|-6-3-6-3-6---6-3-6-3-6---5-2-5-2-5---5-2-5-2-5---6-3-6-3-6---6-3-6-3-6---8-5-8-5-8---7-4-7-4-7|X2

e|--------------------------------|
B|--------------------------------|
G|--------------------------------|
D|--5--4--5--7--6--5--4--5--7--6--|
A|--------------------------------|
E|--3--2--3--5--4--3--2--3--5--4--|
A|--------------------------------|

e|-------------------------------------------|
B|-------------------------------------------|
G|-------------------------------------------|
D|-------------------------------------------|
A|-------------------------------------------|
E|-00---00000000---00h2-0h3-00--000000-0-00--|
A|-00---00000000---00h2-0h3-00--000000-0-00--|X4

e|---------------------------------------------------------------------------|
B|---------------------------------------------------------------------------|
G|---------------------------------------------------------------------------|
D|-------4-3---------4-3---3---3-4/8-7---4-3---------4-3---------------------|
A|---------------------------------------------------------------------------|
E|-0-3-2-----0-3-2-0-----0---0---------0-----0-3-2-0-----0--11--11-----------|
A|-0-3-2-----0-3-2-0-----0---0---------0-----0-3-2-0-----0--11--11-----------|X5
							(1's not 11's)
	
e|--------------------------------------------------------------|
B|--------------------------------------------------------------|
G|--------------------------------------------------------------|
D|-----3---4---3------------------------------------------------|
A|-----1---2---1------------------------------------------------|
E|-1-2-1-1-2-1-1-2-1111-----------44443333----1111--------------|
A|-1-2---1---1---2-----22221111111--------4444----222211111111--|X2



Guitar 1 (Right)
e|---------------------------------------------------------------|
B|---------------------------------------------------------------|
G|---------------------------------------------------------------|
D|-----3---4---3-------------------------------------------------|
A|-----1---2---1----1-------------4---3-------1------------------|
E|-1-2-1-1-2-1-1-2--1----2--1-----4---3---4---1----2---1---1-1---|
A|-1-2---1---1---2-------2--1-------------4--------2---1---1-1---|
						  		 |
Guitar 2 (Left)					  		 |
e|---------------------------------------------------------------|
B|---------------------------------------------------------------|
G|---------------------------------------------------------------|
D|-----3---4---3-------------------------------------------------|
A|-----1---2---1-------------------------------------------------|
E|-1-2-1-1-2-1-1-2--1111-----------44443333----1111--------------|
A|-1-2---1---1---2------22221111111--------4444----222211111111--|



(Both)
e|---------------------------------------------------------------------------|
B|---------------------------------------------------------------------------|
G|---------------------------------------------------------------------------|
D|---------------------------------------------------------------------------|
A|---------------------------3*br--------------------------------------------|
E|-0-0--0--000-000--0-0--0-----------0--0-0--000-000--0-0--0--6*br-----------|
A|-1-1--1--111-111--1-1--1-----------1--1-1--111-111--1-1--1-----------------|

 

"Every Ounce of Blood That You Spill Is Real..."
e|---------------------------------------------------------------------------|
B|---------------------------------------------------------------------------|
G|---------------------------------------------------------------------------|
D|---------------------------------------------------------------------------|
A|---------------------------------------------------------------------------|
E|-0--0-0--000-000--0-0--0--------------0--0-0--000-000--0-0--0--------------|
A|-0--0-0--000-000--0-0--0--4~~~\1p0----0--0-0--000-000--0-0--0--4~~~\1p0----|




e|-------------------------------------------------------------------------------|
B|-------------------------------------------------------------------------------|
G|-------------------------------------------------------------------------------|
D|------------------------------------------3------------------------------------|
A|--5--------------------------------------------5----3----3---5-3-0-------------|
E|-------6----5---5-6-5-0-1---0-3/5-----------------------------------5-3/8br----|
A|-------------------------------------------------------------------------------|
 |										 |
e|-------------------------------------------------------------------------------|
B|-------------------------------------------------------------------------------|
G|-------------------------------------------------------------------------------|
D|-------------------------------------------------------------------------------|
A|-------------------------------------------------------------------------------|
E|-0~~~~~~~~~~~~~~~~~~~~~~~~~~~~~~~~111-111~~~~~~~~~~~~~~~~~~~~~~~~~~~~~~~~~~~---|
A|-0~~~~~~~~~~~~~~~~~~~~~~~~~~~~~~~~111-111~~~~~~~~~~~~~~~~~~~~~~~~~~~~~~~~~~~---|



Outro

e|--------------------------------------------------------------------------|
B|--------------------------------------------------------------------------|
G|-7-7-7-7------------------------------------------------------------------|
D|---------8-8-8-8-7-7-7-7-7-7-7-7/6\7--2--3-3-3-3-2-2-2-2-(5)/7-7-7-7------|
A|-5-5-5-5------------------------------------------------------------------|
E|---------6-6-6-6-5-5-5-5-5-5-5-5/8\5--0--1-1-1-1-0-0-0-0-(3)/5-5-5-5------|
A|--------------------------------------------------------------------------|
 |									    |
e|--------------------------------------------------------------------------|
B|--------------------------------------------------------------------------|
G|--------------------------------------------------------------------------|
D|--------------------------------------------------------------------------|
A|--------------------------------------------------------------------------|
E|-000-0---0000-111-1--1111--44443333---000-0---0000-111-1--1111--44443333--|
A|-000-0---0000-111-1--1111--44443333---000-0---0000-111-1--1111--44443333--|x2




e|--------------------------------------------------------------------------|
B|--------------------------------------------------------------------------|
G|-7------------------------------------------------------------------------|
D|---------8-----8-7-------------7/6\7--2--3-------2-------(5)/7------------|
A|-5------------------------------------------------------------------------|
E|---------6-----6-5-------------5/8\5--0--1-------0-------(3)/5------------|
A|--------------------------------------------------------------------------|
 |									    |
e|--------------------------------------------------------------------------|
B|--------------------------------------------------------------------------|
G|--------------------------------------------------------------------------|
D|--------------------------------------------------------------------------|
A|--------------------------------------------------------------------------|
E|-000-0---0000-111-1--1111--44443333---000-0---0000-111-1--1111--44443333--|
A|-000-0---0000-111-1--1111--44443333---000-0---0000-111-1--1111--44443333--|x2


************************************

| /   slide up
| \   slide down
| h   hammer-on
| p   pull-off
| *   harmonic
| x   Mute note
| pb  Pre-bend
| br  Bend release


************************************
comments
print report bad tab
I want to post or [tab]
guest
You may want to rate the tab now too:
select rating
Please do not post tabs as comments. Select "correction" instead!