Oops, an error
Loading. Please wait.

Dont Ask Dont Tell Bass Tab

version 1
version 1

Whole song

Interactive

5,553 views 18 this week
no commentswrite comment
1 2 3 4 5
please rate
add to favorites
launch autoscroll
font size
0
reset
guitar tuner
Autoscroll
slow
fast
+/-
esc
set tempo
stop
Help us to improve Ultimate-Guitar.com Take our survey!
×
Difficulty
Tuning
intermediate
A E A D F# B
Tuning : Drop A (A,E,A,D) or for a 5 string (A,E,A,D,G)

By : ApothakarY

D|----------------------------------------------------------------------|
A|------------------------7---------7-----------------------------------|
E|--------------------------8-7-7-5---8---------------------------------|
A|8-8-8-8-8-8-8-8-8-8-------------------1-1-1-1-1-1-1-1-1-1-2-2-2-2-3-3-|

                             [From here to the end you play it really fast]
D|----------------------------7-9-9-10-10-9-9-------7-9-9-10-10-9-9-------|
A|------------------------7-9------------------9-9------------------9-9---|
E|--------------------7-9-------------------------------------------------|
A|8-8-8-8-8-8-8-8-8-8-----------------------------------------------------|

D|-----------------------------------------------------|
A|-----------------------------------------------------|
E|-----------------------3-3-3-3-3-3-3-3-3-3-3-3-3-3-3-|
A|3-x-x-3-3-x-x-3-x-3-3--------------------------------|

-Break-

D|-9-7---------------------------------------------------------|
A|----10-8-----------------------------------------------------|
E|--------11-9-------------------------------------------------|
A|-------------12-0----1-1-1-1--1---1-1-1-1--1---1-1-1---1-1-1-|


Back to this.
D|----------------------------------------------------------------------|
A|------------------------7---------7-----------------------------------|
E|--------------------------8-7-7-5---8---------------------------------|
A|8-8-8-8-8-8-8-8-8-8-------------------1-1-1-1-1-1-1-1-1-1-2-2-2-2-3-3-|

                             [From here to the end you play it really fast]
D|----------------------------7-9-9-10-10-9-9-------7-9-9-10-10-9-9-------|
A|------------------------7-9------------------9-9------------------9-9---|
E|--------------------7-9-------------------------------------------------|
A|8-8-8-8-8-8-8-8-8-8-----------------------------------------------------|

D|-----------------------------------------------------|
A|-----------------------------------------------------|
E|-----------------------3-3-3-3-3-3-3-3-3-3-3-3-3-3-3-|
A|3-x-x-3-3-x-x-3-x-3-3--------------------------------|

D|----------------------------------------------------------------------|
A|------------------------7---------7-----------------------------------|
E|--------------------------8-7-7-5---8---------------------------------|
A|8-8-8-8-8-8-8-8-8-8-------------------1-1-1-1-1-1-1-1-1-1-2-2-2-2-3-3-|


D|----------------------------7-9-9-10-10-9-9-------7-9-9-10-10-9-9-------|
A|------------------------7-9------------------9-9------------------9-9---|
E|--------------------7-9-------------------------------------------------|
A|8-8-8-8-8-8-8-8-8-8-----------------------------------------------------|

D|-----------------------------------------------------|
A|-----------------------------------------------------|
E|-----------------------3-3-3-3-3-3-3-3-3-3-3-3-3-3-3-|
A|3-x-x-3-3-x-x-3-x-3-3--------------------------------|

I'm not 100% sure about this part, but repeat it until it gets to the break.
D|-----------------------------------------------------|
A|-----------------------------------------------------|
E|-----------------------------------------------------|
A|1-1-1--1-1-1---1-1-1-1-1--1-1--1-1--1-1-1--1-1-1-1-1-|

And do that again on the part before and during the guitar solo.
D|-----------------------------------------------------|
A|-----------------------------------------------------|
E|-----------------------------------------------------|
A|1-1-1--1-1-1---1-1-1-1-1--1-1--1-1--1-1-1--1-1-1-1-1-|

And this, again after the guitar solo.
D|----------------------------------------------------------------------|
A|------------------------7---------7-----------------------------------|
E|--------------------------8-7-7-5---8---------------------------------|
A|8-8-8-8-8-8-8-8-8-8-------------------1-1-1-1-1-1-1-1-1-1-2-2-2-2-3-3-|


D|----------------------------7-9-9-10-10-9-9-------7-9-9-10-10-9-9-------|
A|------------------------7-9------------------9-9------------------9-9---|
E|--------------------7-9-------------------------------------------------|
A|8-8-8-8-8-8-8-8-8-8-----------------------------------------------------|


D|-----------------------------------------------------|
A|-----------------------------------------------------|
E|-----------------------3-3-3-3-3-3-3-3-3-3-3-3-3-3-3-|
A|3-x-x-3-3-x-x-3-x-3-3--------------------------------|


D|----------------------------------------------------------------------|
A|------------------------7---------7-----------------------------------|
E|--------------------------8-7-7-5---8---------------------------------|
A|8-8-8-8-8-8-8-8-8-8-------------------1-1-1-1-1-1-1-1-1-1-2-2-2-2-3-3-|


D|----------------------------7-9-9-10-10-9-9-------7-9-9-10-10-9-9-------|
A|------------------------7-9------------------9-9------------------9-9---|
E|--------------------7-9-------------------------------------------------|
A|8-8-8-8-8-8-8-8-8-8-----------------------------------------------------|


It changes up here, and its just the guitar doing it for a second or two.
Then its starts with all instuments again doing this.
Again, I'm not 100% sure about it either.
D|-----------------------------------------------------|
A|-----------------------------------------------------|
E|-----------------------------------------------------|
A|1-1-1--1-1-1---1-1-1-1-1--1-1--1-1--1-1-1--1-1-1-1-1-|
Suggest correction
Give kudos to tab author, rate the tab!
1 2 3 4 5
comments
print report bad tab
guest
You may want to rate the tab now too:
select rating
Wanna post a correction for this tab? Suggest correction