Oops, an error
Loading. Please wait.

Elysium Tab

version 2
version 2

Whole song

Interactive

1,397 views 1 this week
1 commentread comment
1 2 3 4 5
2 more votes to show rating
add to favorites
launch autoscroll
font size
0
reset
how to read this tab
guitar tuner
Autoscroll
slow
fast
+/-
esc
set tempo
stop
Help us to improve Ultimate-Guitar.com Take our survey!
×
Author
Chelsea Grin
elysium solo tab
Drop A: A E A D F# B


e|-17b-13-15----------------------------17b-13-15--------------------17s20---|
B|---------------15------17-13----13------------------15------17-13----------|
G|-------------------14----------14--------------------------14--------------|
D|---------------------------------------------------------------------------|
A|---------------------------------------------------------------------------|
E|---------------------------------------------------------------------------|

e|-17-18-17-------------------------------18s20s18-17------------------------|
B|----------18----18s20---18-17-----------------------18---------------------|
G|-------------17---------------17-14-15-----------------17s19s17-15-14-15p14|
D|---------------------------------------------------------------------------|
A|---------------------------------------------------------------------------|
E|---------------------------------------------------------------------------|

e|-----------------18p17--------18p17-----------18p17------------------------|
B|----------------------18-----------18--------------18----------------------|
G|----------14-15---------17s19--------17s19s17--------17s19s17-15--14-15-14-|
D|-15p12-15------------------------------------------------------------------|
A|---------------------------------------------------------------------------|
E|---------------------------------------------------------------------------|

e|-----------18p17---------18p17------------18p17----------------------------|
B|----------------18------------18---------------18--------------------------|
G|------------------17s19---------17s19s17---------17s19s17-15--14-15-14-----|
D|-15-12-15------------------------------------------------------------------|
A|---------------------------------------------------------------------------|
E|---------------------------------------------------------------------------|

e|---------------------------------------------------------------------------|
B|---------------------------------------------------------------------------|
G|---------------------------------------------------------------------------|
D|-15-12-15--/19---15-/19\17---14-15-14----------------18--\14v----14h15p14--|
A|--------------------------------------15-12-15-/20-------------------------|
E|---------------------------------------------------------------------------|

e|---------------------------------------------------------------------------|
B|---------------------------------------------------------------------------|
G|---------------------------------------------------------------------------|
D|----------14-12~~~~\\------------------------------------------------------|
A|-15-12-15------------------------------------------------------------------|
E|---------------------------------------------------------------------------|

Suggest correction
Give kudos to tab author, rate the tab!
1 2 3 4 5
comments
print report bad tab
1 comment total.
0 reply
Harness 105 Dec 17, 2014 01:58 PM

didn't like this contribution

guest
You may want to rate the tab now too:
select rating
Wanna post a correction for this tab? Suggest correction