Oops, an error
Loading. Please wait.

Elysium Tab

version 1
version 1

Whole song

Interactive

23,206 views 36 this week
no commentswrite comment
1 2 3 4 5
accurate
x 5
add to favorites
launch autoscroll
font size
0
reset
how to read this tab
guitar tuner
Tab Pro tools
  • play this tab
  • loop segment
  • change instrument
  • show fretboard
  • metronome
Autoscroll
slow
fast
+/-
esc
set tempo
stop
Contributor
Difficulty
Tuning
intermediate
A E A D F# B
Chelsea Grin - Elysium

Hello There fellow metal heads! Not much of a Chelsea Grin fan but I was completely 
away by this track here.
So I HAD to tab it out. By the way, this is my first tab. They use 7 strings but i only could
use a 6 string during this. You can still play this whole song with a 6 string. Any
questions or anything, put them in the comments.

6 string Drop A tuning!  low to high (A E A D F# B)

myspace.com/totallyawesomebassplayer


B|---------------------------------------------12h13p12----------------|
F#|----------------------------------------------------13-10-----------|
D|-----------------------------------------------------------12-10-9~--|
A|-0-------0-3----3-3-3-3-3-3----0------0-3----------------------------|
E|-0-------0-3----3-3-3-3-3-3----0------0-3----------------------------|
A|-0-------0-3----3-3-3-3-3-3-3b-0------0-3----------------------------|
	   .        . . . . .           .

B|-------------------------------------------|
F#|------------------------------------------|
D|-------------------------------------------|
A|-0--0x-0x-00-00--0-0000-3--3x-3x-33-33-33--|
E|-0--0x-0x-00-00--0-0000-3--3x-3x-33-33-33--|
A|-0--0x-0x-00-00--0-0000-3--3x-3x-33-33-33--|
		     ....


B|-----------------------------------12h13p12----------------|
F#|------------------------------------------13-10-----------|
D|-------------------------------------------------12-10-9~--|
A|-0--0x-0x-00-00--0-0000-3--3x-3x-3-------------------------|
E|-0--0x-0x-00-00--0-0000-3--3x-3x-3-------------------------|
A|-0--0x-0x-00-00--0-0000-3--3x-3x-3-------------------------|
                     ....

B|-------------------------------------------|
F#|------------------------------------------|
D|-------------------------------------------|
A|-0--0x-0x-00-00--0-0000-3--3x-3x-33-33-33--|
E|-0--0x-0x-00-00--0-0000-3--3x-3x-33-33-33--|
A|-0--0x-0x-00-00--0-0000-3--3x-3x-33-33-33--|
		     ....

B|-----------------------------------12h13p12----------------|
F#|------------------------------------------13-10-----------|
D|-------------------------------------------------12-10-9~--|
A|-0--0x-0x-00-00--0-0000-3--3x-3x-3-------------------------|
E|-0--0x-0x-00-00--0-0000-3--3x-3x-3-------------------------|
A|-0--0x-0x-00-00--0-0000-3--3x-3x-3-------------------------|
                     ....

B|-----------------------------| X2
F#|----------------------------|
D|-----------------------------|
A|-----------------------------|
E|----------------000-0-0-0-0--|
A|-000-0x---0x-0x-000-0-0-0-0--|
                  ... . . . .

SOLO!

B|----17b19b17-------------------------17b19b17-----------------15s20-20~---17h18p17----------|
F#|------------18--20-15----17------------------18--20-15---17----------------------18--/20~--|
D|------------------------14--14-15-17--------------------14--14----------------------17------|
A|--------------------------------------------------------------------------------------------|
E|--------------------------------------------------------------------------------------------|
A|--------------------------------------------------------------------------------------------|

B|-----------------18s20-18-17-----------------------------------------|
F#|-18p17---------------------18~--------------------------------------|
D|--------15-14-15----------------17/19\17-15--14--15-14--------14h15--|
A|-------------------------------------------------------15---15-------|
E|----------------------------------------------------------17---------|
A|---------------------------------------------------------------------|

B|-18p17---------18p17------------18p17----------------------------------|
F#|-----18------------18---------------18--------------------------------|
D|--------17s19~--------17/19\17~--------17/19\17-15~--14h15p14----------|
A|--------------------------------------------------------------15--15~--|
E|----------------------------------------------------------------17-----|
A|-----------------------------------------------------------------------|

B|-18p17---------18p17------------18p17--------------------------------------------------|
F#|-----18------------18---------------18------------------------------------------------|
D|--------17s19~--------17/19\17~--------17/19\17-15~--14h15p14--------14~-------14-12~--|
A|--------------------------------------------------------------15--15------15~----------|
E|----------------------------------------------------------------17---------------------|
A|---------------------------------------------------------------------------------------|

B|---------------------------------------------------------|
F#|--------------------------------------------------------|
D|----------------------14~--------------------------------|
A|-14h15p14--------15~-------14~---14h15p14-------14--12~--|
E|---------13-12-13-------------------------13-12----------|
A|---------------------------------------------------------|


B|----------------------------------------------------------------------------------------|
F#|---------------------------------------------------------------------------------------|
D|----------------------------------------------------------------------------------------|
A|-0--0x-0x-00-00--0-0000-3--3x-3x-33-33-33--0--0x-0x-00-00--0-0000-3--3x-3x-3--33-33-33--|
E|-0--0x-0x-00-00--0-0000-3--3x-3x-33-33-33--0--0x-0x-00-00--0-0000-3--3x-3x-3--33-33-33--|
A|-0--0x-0x-00-00--0-0000-3--3x-3x-33-33-33--0--0x-0x-00-00--0-0000-3--3x-3x-3--33-33-33--|
		     ....				       ....


				X4
B|-----------------------------|
F#|----------------------------|
D|-----------------------------|
A|-----------------------------|
E|----------------000-0-0-0-0--|
A|-000-0x---0x-0x-000-0-0-0-0--|
                  ... . . . .

B|------
F#|-----
D|------|
A|--0---|
E|--0---|
A|--0---|

 /  slide up
| \  slide down
| h  hammer-on
| p  pull-off
| ~  vibrato
| +  harmonic
| x  Mute note
| s  slide
| b  bend note
| .  palm mute
comments
print report bad tab
I want to post or [tab]
guest
You may want to rate the tab now too:
select rating
Please do not post tabs as comments. Select "correction" instead!