Oops, an error
Loading. Please wait.

Elysium Bass Tab

version 2
version 2

Whole song

Interactive

1,054 views 1 this week
no commentswrite comment
1 2 3 4 5
3 more votes to show rating
add to favorites
launch autoscroll
font size
0
reset
guitar tuner
Autoscroll
slow
fast
+/-
esc
set tempo
stop
Help us to improve Ultimate-Guitar.com Take our survey!
×
Difficulty
novice
Chelsea Grin- Elysium
- 4 String Bass Tabs
- Standard Tuning
I just eared the song so there will be mistakes, i didnt finish it
because its tiring but you get the point of how it will go. have fun(:
If anything e:mail alex_abn_12@yahoo.com


G-------------------------------|
D-------------------------------|
A-0--0-3--3-3-3-3-3-3-3-0-------|
E-------------------------------|

G--------------------------------|
D--------------------------------|
A-0-3--3--0-0--0-0-0-0-0-0-0-0-0-|
E--------------------------------|

G-----------------------------|
D-----------------------------|
A-3-3--3-3-3-3-3-3-3-3-3------|
E-----------------------------|

G-----------------------------|
D-----------------------------|
A-0-0--0-0-0-0-0-0-0-0-0--3-3-|
E-----------------------------|

G-------------------------------|
D-------------------------------|
A-3-3-3-3-3-3-3-3-0000-0-0-0000-|
E-------------------------------|

G-----------------------------|
D-----------------------------|
A-00000000--0-0-0000-00000000-|
E-----------------------------|

G-----------------------------|
D-----------------------------|
A-0-0-0000-00000000-----------|
E-----------------------------|

G-----------------------------|
D-----------------------------|
A-33333333--3-3-3333-33333333-|
E-----------------------------|

G-----------------------------|
D-----------------------------|
A-0000-0-0-00000000-----------|
E-----------------------------|
Suggest correction
Give kudos to tab author, rate the tab!
1 2 3 4 5
comments
print report bad tab
guest
You may want to rate the tab now too:
select rating
Wanna post a correction for this tab? Suggest correction