Oops, an error
Loading. Please wait.

Elysium Tab

version 2
version 2

Whole song

Interactive

7,406 views 1 this week
2 commentsread comments
1 2 3 4 5
2 more votes to show rating
add to favorites
launch autoscroll
font size
0
reset
how to read this tab
guitar tuner
Autoscroll
slow
fast
+/-
esc
set tempo
stop
Help us to improve Ultimate-Guitar.com Take our survey!
×
Author
Difficulty
Tuning
intermediate
A E A D F# B
For all those people who didn't have guitar pro, and/or didn't have a 7 string.
I'm almost positive it is correct. Please correct me if I am wrong.

Enjoy.

Intro/Main riff:

|--------------5--------5--------5--------------|
|-------8---------8--------8--------8-----------|
|--------------------5--------------------------|
|----7-----7------------------7--------7--------|
|-----------------------------------------------|
|-----------------------------------------------|

|----------------7-------------7---------7---------------|
|---------8---------8-------------8---------8------------|
|--7-----------------------------------------------------|
|-----10-----10--------10--10--------10--------10-10-10--|
|--------------------------------------------------------|
|--------------------------------------------------------|

Solo:

|----17b19b17-------------------------17b19b17-----------------15s20-20~---17h18p17---------|
|------------18--20-15----17------------------18--20-15---17----------------------18--/20~--|
|------------------------14--14-15-17--------------------14--14----------------------17-----|
|-------------------------------------------------------------------------------------------|
|-------------------------------------------------------------------------------------------|
|-------------------------------------------------------------------------------------------|

|-----------------18s20-18-17-------------------------------------------|
|-18p17---------------------18~-----------------------------------------|
|--------15-14-15----------------17/19\17-15--14--15-14--------14h15----|
|-------------------------------------------------------15---15---------|
|----------------------------------------------------------17-----------|
|-----------------------------------------------------------------------|

|-18p17---------18p17------------18p17------------------------------------|
|-----18------------18---------------18-----------------------------------|
|--------17s19~--------17/19\17~--------17/19\17-15~--14h15p14------------|
|--------------------------------------------------------------15--15~----|
|----------------------------------------------------------------17-------|
|-------------------------------------------------------------------------|

|-18p17---------18p17------------18p17--------------------------------------------------|
|-----18------------18---------------18-------------------------------------------------|
|--------17s19~--------17/19\17~--------17/19\17-15~--14h15p14--------14~-------14-12~--|
|--------------------------------------------------------------15--15------15~----------|
|----------------------------------------------------------------17---------------------|
|---------------------------------------------------------------------------------------|

|-----------------------------------------------------------|
|-----------------------------------------------------------|
|----------------------14~----------------------------------|
|-14h15p14--------15~-------14~---14h15p14-------14--12~----|
|---------13-12-13-------------------------13-12------------|
|-----------------------------------------------------------|
Suggest correction
Give kudos to tab author, rate the tab!
1 2 3 4 5
comments
print report bad tab
2 comments total.
0 reply
minkar_man72 275 Jun 08, 2011 09:20 AM

im not sure i agree with the verse/intro even though im not comletely sure how to play it but the solos pretty close. Id just make a few changes:

e|-17b-13-15----------------------------17b-13-15--------------------17s20---|
B|---------------15------17-13----13------------------15------17-13----------|
G|-------------------14----------14--------------------------14--------------|
D|---------------------------------------------------------------------------|
A|---------------------------------------------------------------------------|
E|---------------------------------------------------------------------------|

e|-17-18-17-------------------------------18s20s18-17------------------------|
B|----------18----18s20---18-17-----------------------18---------------------|
G|-------------17---------------15-14-15-----------------17s19s17-15-14-15p14|
D|---------------------------------------------------------------------------|
A|---------------------------------------------------------------------------|
E|---------------------------------------------------------------------------|

e|-----------------18p17--------18p17-----------18p17------------------------|
B|----------------------18-----------18--------------18----------------------|
G|----------14-15---------17s19--------17s19s17--------17s19s17-15--14-15-14-|
D|-15p12-15------------------------------------------------------------------|
A|---------------------------------------------------------------------------|
E|---------------------------------------------------------------------------|

e|-----------18p17---------18p17------------18p17----------------------------|
B|----------------18------------18---------------18--------------------------|
G|------------------17s19---------17s19s17---------17s19s17-15--14-15-14-----|
D|-15-12-15------------------------------------------------------------------|
A|---------------------------------------------------------------------------|
E|---------------------------------------------------------------------------|

e|---------------------------------------------------------------------------|
B|---------------------------------------------------------------------------|
G|---------------------------------------------------------------------------|
D|-15-12-15--/19---15-/19\17---14-15-14----------------18--\14v----14h15p14--|
A|--------------------------------------15-12-15-/20-------------------------|
E|---------------------------------------------------------------------------|

e|---------------------------------------------------------------------------|
B|---------------------------------------------------------------------------|
G|---------------------------------------------------------------------------|
D|----------14-12~~~~\\------------------------------------------------------|
A|-15-12-15------------------------------------------------------------------|
E|---------------------------------------------------------------------------|

nice job anyway though :)

0 reply
minkar_man72 275 Jun 08, 2011 09:41 AM

sorry that 14 on G(D) and the 13 on B(F#) are separate notes

guest
You may want to rate the tab now too:
select rating
Wanna post a correction for this tab? Suggest correction