Oops, an error
Loading. Please wait.

False Sense Of Sanity Tab

version 1
version 1

Whole song

Interactive

2,749 views 1 this week
2 commentsread comments
1 2 3 4 5
x 3
add to favorites
launch autoscroll
font size
0
reset
how to read this tab
guitar tuner
Autoscroll
slow
fast
+/-
esc
set tempo
stop
Help us to improve Ultimate-Guitar.com Take our survey!
×
Author
                             Chelsea Grin
                         False Sense of Sanity

Tuning: Drop A-(A,E,A,D,F#,B)

   (0:00-0:02)
   -------------------------------------------------------------------|
   -------------------------------------------------------------------|
   --------------------------I Dont Know!-----------------------------|
   -------------------------------------------------------------------|
   -------------------------------------------------------------------|
   -------------------------------------------------------------------|

   (0:03-0:10)                                        [both guitars]
   -------------------------------------------------------------------|
   -------------------------------------------------------------------|
   -------------------------------------------------------------------|
   ---------------------------------------[6]--------x2---------------|
   ------6-------5-------------6-------5------------------------------|
   -0--3----0--2----0--1--0--3----0--2--------------------------------|
    *  *    *  *    *  *  *  *    *  *

   (0:11-0:20)                                         [guitar 1]
   -------------------------------------------------------------------|
   -------------------------------------------------------------------|
   -------------------------------------------------------------------|
   ---------------------------------------[6]--------x2---------------|
   ------6-------5-------------6-------5------------------------------|
   -0--3----0--2----0--1--0--3----0--2--------------------------------|
    *  *    *  *    *  *  *  *    *  *

   --------------------|
   --------------------|
   --------------------|
   --------------------|
   ------6--------5----|
   -0--3----0--2-------|
    *  *    *  *

   (0:11-0:20)                                         [guitar 2]
   --------------------------------------------------------------------|
   --------------------------------------------------------------------|
   --------------------------------------------------------------------|
   ------------------------------------------------------------x2------|
   --------6---------5-----------------6---------5---------------------|
   -00--33----00--22----00--11--00--33----00--22-----------------------|


   --------------------|
   --------------------|
   --------------------|
   --------------------|
   --------6---------5-|
   -00--33----00--22---|


   (0:21-0:39)                                         [both guitars]
   --------------------------------------------------------------------|
   --------------------------------------------------------------------|
   --------------------------------------------------------------------|
   --------------------------------------------------------------------|
   --------222-111-----------------------------222-111-----------------|
   -111111---------444444--0-1-0-4-0-3--111111---------444444----------|
                           * * * * * *

   --------------------------------------------------------------------|
   --------------------------------------------------------------------|
   --------------------------------------------------------------------|
   --------------------------------------------------------------------|
   -66-55-22-11--------222-111------------------------------222-111----|
   -------------111111---------444444--0-1-0-4-0-3---111111------------|
                                       * * * * * *

   -----------------------------------------|
   -----------------------------------------|
   -----------------------------------------|
   -----------------------------------------|
   ---------66-55-22-11--66-55-22-11--------|
   -444444----------------------------------|


   (0:39-0:57)                                       [both guitars]
   --------------------------------------------------------------------|
   --------------------------------------------------------------------|
   --------------------------------------------------------------------|
   --------------------------------------------------------------------|
   -0000-1~--2~--6-5-3-1~--2~--6--5--3-1~--2~--6-5-3-1~--2~--6--5--3~--|
   -0000-1~--2~--6-5-3-1~--2~--6--5--3-1~--2~--6-5-3-1~--2~--6--5--3~--|
    ****         * * *         *  *  *         * * *         *  *  *

   (0:59-1:16)                                       [both guitars]
   --------------------------------------------------------------------|
   --------------------------------------------------------------------|
   --------------------------------------------------------------------|
   --------------------------------------------------------------------|
   -0--0--0-000---0--0--0-000------0--0--0-000---0--0--0-000--1111-----|
   -1--1--1-111---1--1--1-111-1111-1--1--1-111---1--1--1-111-----------|
    *  *  * ***   *  *  * ***      *  *  * ***   *  *  * ***

   (1:17-1:34)                                       [guitar 1]
   --------------------------------------------------------------------|
   --------------------------------------------------------------------|
   ------------------------------------15~--14~------------------------|
   -12~--15~--14~--11~--12~--15~--14~-----------------------x2---------|
   --------------------------------------------------------------------|
   --------------------------------------------------------------------|

                                                     [guitar 2]
   --------------------------------------------------------------------|
   --------------------------------------------------------------------|
   --------------------------------------------------------------------|
   --------------------------------------------------------------------|
   -0--0--0-000---0--0--0-000-------0--0--0-000---0--0--0-000----------|
   -1--1--1-111---1--1--1-111-------1--1--1-111---1--1--1-111----------|
    *  *  * ***   *  *  * ***       *  *  * ***   *  *  * ***

   (1:35-1:44)                                       [both guitars]
   --------------------------------------------------------------------|
   --------------------------------------------------------------------|
   --------------------------------------------------------------------|
   ------------------------------------------------------------x2------|
   --------6---------5-----------------6---------5---------------------|
   -00--33----00--22----00--11--00--33----00--22-----------------------|

   (1:45-1:52)                                       [guitar 1]
   -------------------------------------------------------------------|
   -------------------------------------------------------------------|
   -------------------------------------------------------------------|
   ---------------------------------------[6]--------x2---------------|
   ------6-------5-------------6-------5------------------------------|
   -0--3----0--2----0--1--0--3----0--2--------------------------------|
    *  *    *  *    *  *  *  *    *  *

   --------------------|
   --------------------|
   --------------------|
   --------------------|
   ------6--------5----|
   -0--3----0--2-------|
    *  *    *  *

   (1:45-1:52)                                       [guitar 2]
   --------------------------------------------------------------------|
   --------------------------------------------------------------------|
   --------------------------------------------------------------------|
   ------------------------------------------------------------x2------|
   --------6---------5-----------------6---------5---------------------|
   -00--33----00--22----00--11--00--33----00--22-----------------------|


   --------------------|
   --------------------|
   --------------------|
   --------------------|
   --------6---------5-|
   -00--33----00--22---|

   (1:54-2:47)                                       [both guitars]
   --------------------------------------------------------------------|
   --------------------------------------------------------------------|
   --------------------------------------------------------------------|
   --------------------------------------------------------------------|
   --------------------------------------------------------------------|
   -1-11111-2121-1-11111--6--3--2-1-11111-2121-1-11111----6--3--2-1----|

   --------------------------------------------------------------------|
   --------------------------------------------------------------------|
   --------------------------------------------------------------------|
   --------------------------------------------------------------------|
   -0-00000------0-00000------------00000------0-00000-----------------|
   -1-11111-2121-1-11111--6--3--2-1-11111-2121-1-11111----6--3--2-1----|
    * *****      * *****            *****      * *****

   --------------------------------------------------------------------|
   --------------------------------------------------------------------|
   --------------------------------------------------------------------|
   --------------------------------------------------------------------|
   ---000000-------000000--------000000-------000000--------000000-----|
   -1-111111-11111-111111-2121-1-111111-11111-111111-2121-1-111111-----|
      ******       ******        ******       ******        ******

   --------------------------------------------------------------------|
   --------------------------------------------------------------------|
   --------------------------------------------------------------------|
   --------------------------------------------------------------------|
   ---------000000-------000000--------000000-------00000--------------|
   -6-3-2-1-111111-11111-111111-2121-1-111111-11111-11111--6--3--2-1---|
            ******       ******        ******       *****
Suggest correction
Give kudos to tab author, rate the tab!
1 2 3 4 5
comments
print report bad tab
2 comments total.
0 reply
minkar_man72 275 Nov 21, 2011 09:59 AM

you could figure out how to play te song from this but there are still quite a few mistakes:

intro:
e|----------------|
B|----------------|
G|----------------|
D|1---------------|
A|1-4-1-0-1-3-1-0-|
E|--4-1-0-1-3-1-0-|
. . . . . . .

(1:54-2:47)
|--------------------------------------------------------------------|
|--------------------------------------------------------------------|
|--------------------------------------------------------------------|
|--------------------------------------------------------------------|
|--------------------------------------------------------------------|
|-0-00000-323~-0-00000--6--3--1-0-00000-323~-0-00000----6--3--1------|

|--------------------------------------------------------------------|
|--------------------------------------------------------------------|
|--------------------------------------------------------------------|
|--------------------------------------------------------------------|
|-0-00000------0-00000----------0-00000------0-00000-----------------|
|-1-11111-323~-1-11111--6--3--1-1-11111-323~-1-11111----6--3--1------|

|--------------------------------------------------------------------|
|--------------------------------------------------------------------|
|--------------------------------------------------------------------|
|--------------------------------------------------------------------|
|--------------------------------------------------------------------|
|-0-00000000-00-00-0-000000-323~-0-00000000-00-00-0-000000-6-3-1------|
******** ****** ******** ******
|--------------------------------------------------------------------|
|--------------------------------------------------------------------|
|--------------------------------------------------------------------|
|--------------------------------------------------------------------|
|---00000000---------000000--------00000000---------000000-----------|
|-0-00000000-00-00-0-000000-323~-0-00000000-00-00-0-000000-6-3-1-0---|
******** ****** ******** ******

0 reply
minkar_man72 275 Nov 21, 2011 10:01 AM

there are still a few more i didnt feel like pointing out but if you listen to the song close enough this should be enought to figure ouy on your own

guest
You may want to rate the tab now too:
select rating
Wanna post a correction for this tab? Suggest correction