Oops, an error
Loading. Please wait.

Judgement Tab

version 2
version 2

Whole song

Interactive

399 views 1 this week
no commentswrite comment
1 2 3 4 5
2 more votes to show rating
add to favorites
×
Save as Personal and add changes to this tab that will be seen only by you. Learn more ›
×
You can save this tab as Personal to edit and correct it or add notes. All changes will be seen only by you. Learn more »
save as personal
new!
launch autoscroll
font size
0
reset
how to read this tab
guitar tuner
Autoscroll
slow
fast
+/-
esc
set tempo
stop
Author
Difficulty
Tuning
intermediate
A E A D F# B
Judgement - Chelsea Grin
Tabbed by: Aenvir
E-mail: Aaron77524@gmail.com

Judgement by Chelsea Grin from their album Desolation of Eden.

This whole tab is for a 7 String in drop A tuning.

*******************************************************************************

Rhythm Guitar

[Intro]

(0:00-0:33)

E|-----------------------------|-----------------------------|
B|-----------------------------|-----------------------------|
G|-----------------------------|-----------------------------|
D|-----------------------------|-----------------------------|
A|-----------------------------|-----------------------------|
E|--0-0-0-0--0-0--0-0-0-0--0-0-|-0-0-0-0--0-0--0-0-0-0--0-0--|\
A|--1-1-1-1--1-1--1-1-1-1--1-1-|-1-1-1-1--1-1--1-1-1-1--1-1--| \
 PM . . . .  . .  . . . .  . .   . . . .  . .  . . . .  . .     \
                                                                 \
                                                                   x4
E|-----------------------------|--------------------------|      /
B|-----------------------------|--------------------------|     /
G|-----------------------------|--------------------------|    /
D|-----------------------------|--------------------------|   /
A|-----------------------------|--------------------------|  /
E|--0-0-0-0--0-0--0-0-0-0--0-0-|-0-0-0-0--0-0-------------| /
A|--1-1-1-1--1-1--1-1-1-1--1-1-|-1-1-1-1--1-1--0-0-0-0----|/
 PM . . . .  . .  . . . .  . .   . . . .  . .


[Verse]

(0:34-1:05)

E|-------------------------------------|
B|-------------------------------------|
G|-------------------------------------|
D|-------------------------------------| x4
A|-------------------------------------|
E|-------------------------------------|
A|--0-0--0-0----0--0--0---0-0---0-0-0--|


[Outro]

(1:06-1:11)

E|-----------------------------------------------------------|
B|-----------------------------------------------------------|
G|-----------------------------------------------------------|
D|-----------------------------------------------------------|
A|--0~-------------------------------------------------------|
E|--0~-------------------------------------------------------|
A|--0~-------------------------------------------------------|


*******************************************************************************


Lead Guitar

[Intro]

(0:00-0:33)

E|-----------------------------|-----------------------------|
B|-----------------------------|-----------------------------|
G|-----------------------------|-----------------------------|
D|-----------------------------|-----------------------------|
A|-----------------------------|-----------------------------|
E|--0-0-0-0--0-0--0-0-0-0--0-0-|-0-0-0-0--0-0--0-0-0-0--0-0--|\
A|--1-1-1-1--1-1--1-1-1-1--1-1-|-1-1-1-1--1-1--1-1-1-1--1-1--| \
 PM . . . .  . .  . . . .  . .   . . . .  . .  . . . .  . .     \
                                                                 \
                                                                   x4
E|-----------------------------|--------------------------|      /
B|-----------------------------|--------------------------|     /
G|-----------------------------|--------------------------|    /
D|-----------------------------|--------------------------|   /
A|-----------------------------|--------------------------|  /
E|--0-0-0-0--0-0--0-0-0-0--0-0-|-0-0-0-0--0-0-------------| /
A|--1-1-1-1--1-1--1-1-1-1--1-1-|-1-1-1-1--1-1--0-0-0-0----|/
 PM . . . .  . .  . . . .  . .   . . . .  . .


[Verse]

(0:34-1:05)

E|------------------------------------------|---------------------------------------------|
B|------------------------------------------|---------------------------------------------|
G|--12h13p12\10h12~-12/17-17-16-16-13-13-13-|-12h13p12\10h12------------------------------|
D|------------------------------------------|----------------14-15~----14-----------------| x4
A|------------------------------------------|-----------------------16----16p15-16-15-13~-|
E|------------------------------------------|---------------------------------------------|
A|------------------------------------------|---------------------------------------------|


[Outro]

(1:06-1:11)

E|-----------------------------------------------------------|
B|-----------------------------------------------------------|
G|--12h13p12\10h12~------------------------------------------|
D|-----------------------------------------------------------|
A|-----------------------------------------------------------|
E|-----------------------------------------------------------|
A|-----------------------------------------------------------|


************************************

| h  Hammer-on
| p  Pull-off
| /  Slide up
| \  Slide down
| ~  Let ring
| .  Palm mute

************************************
Suggest correction
Give kudos to tab author, rate the tab!
1 2 3 4 5
comments
print report bad tab
guest
You may want to rate the tab now too:
select rating
Wanna post a correction for this tab? Suggest correction