Oops, an error
Loading. Please wait.

Kharon Tab

version 1
version 1

Whole song

Interactive

18,479 views 15 this week
1 commentread comment
1 2 3 4 5
excellent!
x 10
add to favorites
launch autoscroll
font size
0
reset
how to read this tab
guitar tuner
Autoscroll
slow
fast
+/-
esc
set tempo
stop
Help us to improve Ultimate-Guitar.com Take our survey!
×
Author
Difficulty
intermediate
-------------------------------------------------------------------------------
                             Kharon – Chelsea Grin
-------------------------------------------------------------------------------
Tabbed by: CoverEmAll95 (watch my youtube cover)

btw: That’s for TheGuitarGod246´s girlfriend :D ..and my first tab

Tuning: standard

e|---------------------------------------------------------------------------|
B|--5----5---5---5-------4---4---4---4---------------------------------------|
G|---5----5---5---5-------4---4---4---4-----2 times--------------------------|
D|----7----7---7---7-------6---6---6---6-------------------------------------|
A|-----8----8---8---8-------7---7---7---7------------------------------------|
E|--5-let ring-----------4---------------------------------------------------|

e|---------------------------------------------------------------------------|
B|-1---1---1---1---------0---0---0---0---------------------------------------|
G|--1---1---1---1---------2---2---2---2-----2 times--------------------------|
D|---3---3---3---3---------3---3---3---3-------------------------------------|
A|----4---4---4---4---------5---5---5---5------------------------------------|
E|-1-let ring------------0-let ring------------------------------------------|

e|-- -8/12—12h13-12-10-8~----------------------------------------------------|
B|------10---------------------12--10-9--12--10-9----------------------------|
G|-----9-----------------------13--11-10-13--11-10---10-9-7---------9~-------|
D|----------------------------------------------------------10-9-7-----------|
A|-7-7-------------------------------------------------------------7---------|
E|---------------------------------------------------------------------------|

e|----------------------------------------13-12--16-17~----16~---------------|
B|-------------------9-10-9---/13-12-9-10------------------------------------|
G|-10-9h10p9----9-10---------------------------------------------------------|
D|-----------10--------------------------------------------------------------|
A|---------------------------------------------------------------------------|
E|---------------------------------------------------------------------------|

e|-/13-12-10-8---------------------------------------------------------------|
B|--------------12-10-9---------12b(14)br(12)--12-10-12----------------------|
G|----------------------10-9-7-----------------------------------------------|
D|---------------------------------------------------------------------------|
A|---------------------------------------------------------------------------|
E|---------------------------------------------------------------------------|

e|---------------------------------------------------------------------------|
B|-10-9--10\7-10-9-----------------------------------------------------------|
G|-11-10-11\7-11-10---5h7-5-4---4/5------------------------------------------|
D|----------------------------7----------------------------------------------|
A|---------------------------------------------------------------------------|
E|---------------------------------------------------------------------------|

e|---------------------------------------------------------------------------|
B|---------------------------------------------------------------------------|
G|-4-5-4-----9-10-9----------------------------------------------------------|
D|-------7----------12-------------------------------------------------------|
A|-----------------------7-8-7----2-3-2--------------------------------------|
E|-----------------------------10-------5------------------------------------|

e|---------------------------------------------------------------------------|
B|---------------------------------------------------------------------------|
G|---------------------------------------------------------------------------|
D|-----7----9-10-0-9--------7---9-10---9~------------------------------------|
A|-5-8---8--------------5-8---8------5-let ring------------------------------|
E|---------------------------------------------------------------------------|


************************************

| /   slide up
| \   slide down
| h   hammer-on
| p   pull-off
| ~   vibrato
| +   harmonic
| x   Mute note
| b   Bend
| pb  Pre-bend
| br  Bend release
| pbr Pre-bend release
| brb Bend release bend

************************************
Suggest correction
comments
print report bad tab
1 comment total.
+1 reply
ShreddingDead13 32 wrote on October 22 2013, 06:51 pm

Brilliant tab :3

guest
You may want to rate the tab now too:
select rating
Wanna post a correction for this tab? Suggest correction