Oops, an error
Loading. Please wait.

My Damnation Tab

version 1
version 1

Whole song

Interactive

32,152 views 27 this week
5 commentsread comments
1 2 3 4 5
excellent!
x 15
add to favorites
launch autoscroll
font size
0
reset
how to read this tab
guitar tuner
Autoscroll
slow
fast
+/-
esc
set tempo
stop
Help us to improve Ultimate-Guitar.com Take our survey!
×
Author
Difficulty
Tuning
intermediate
A E A D F# B
Chelsea Grin- My Damnation (6 STRING TAB!!<----)

This is my first tab ever made so bare with me on this one :D
You also have to figure the rythyms by yourself but it's easy.
Also keep in mind that Chelsea Grin uses 3 guitars so if it sounds like it's wrong 
it might be because of there are 3 guitars.
Or then it's just wrong :) I'm just using my ears so it's not close to being perfect.

Tuning is DROP A: AEADF#B


* - Palm Mute
; - Slight Bend
X - Mute Note
/ - Slide Up
\ - Slide Down
~ - Vibrato
+ - Bend quickly up and slowly down
h - Hammer On
p - Pull Off
^ - Pinch Harmonic
§ - Whammy DOWN



 0:00-0:03

 B|------------------------------------------|
F#|------------------------------------------|
 D|------------------------------------------|
 A|-8-----7----------------------------------|
 E|-5--0--4---1-0-0-0--0---1-000-0-0---------|
 A|-5--0--4---1-1-1-1--1---1-111-1-1---------|
       *        * * * *      *** * *                
                                                       Repeat these two 2x
 0:04-0:08                                              

 B|------------------------------------------|
F#|------------------------------------------|
 D|----------------3/4\3-------3-------------|
 A|-8-----7-----4--X/X\X-------X-------------|
 E|-5--0--4--0--1--1/2\1-0-2-1-1-------------|
 A|-5--0--4--0--1--------0-2-1---1-0---------|        
       *     *           * * *   ;            



 0:16-0:31

 B|---------------------------------------------------------------|
F#|---------------------------------------------------------------|
 D|----------------------------------------------------3/4\3------|
 A|----------------------------------------------------X/X\X------| x2
 E|-0000-0-0000-0-0000-0-11111111-0000-0-0000-0-0000-0-1/2\1-0-2--|
 A|-1111-1-1111-1-1111-1-00000000-1111-1-1111-1-1111-1-------0-2--|
    **** * **** * **** * ******** **** * **** * **** *       * *   



 0:32-0:39

 B|-----------------------------------------------------------------------|
F#|-----------------------------------------------------------------------|
 D|-------3----------------3------------------3----------------3----------|
 A|-------X----------------X------------------X----------------X----------|
 E|-0-2-1-1-2-1-1----0-2-1-1-2-1-111-4--0-2-1-1-2-1-1----0-2-1-1-1-0-1-0--|
 A|-0-2-1---2-1---2--0-2-1---2-1--------0-2-1---2-1---2--0-2-1---2-1-2-1--| 
    * * *   * * ;    * * *   * *        * * *   * * ;    * * *   * * * *   



 0:40-0:41

 B|-------|
F#|-------|
 D|-------|
 A|-------|
 E|-1--2--|
 A|-1--2--|




 0:42-0:57

 B|----------------------------------------------| You have to figure out
F#|----------------------------------------------| the rhythm by yourself.
 D|----------------------------------------------| 
 A|----------------------------------------------| x2  
 E|-0-2-1----2-1--1----2-1---2-1-0-1-------------|     
 A|-0-2-1----2-1--1----2-1---2-1-0-1-3-----------| 
    * * *    * *  *    * *   * * * * ~          

 0:58-1:14

 B|-------------------------------------------------------
F#|-------------------------------------------------------
 D|-------------------------------------------------------
 A|-------------------------------------------------------
 E|-1-1-1--1-1-1--1-1-1----1-1-1--1-1-1--1-1-1--1-1-1-1---
 A|-1-1-1--1-1-1--1-1-1----1-1-1--1-1-1--1-1-1--1-1-1-1--- 
    * * *  * * *  * * *    * * *  * * *  * * *  * * * *    
   ----------------------------------------------------|
   ----------------------------------------------------|
   ----------------------------------------------------|
   ----------------------------------------------------| x2
   -1-1-1--1-1-1--1-1-1---1-1-1--1-1-1--1-1-1--1-1-1-1-|
   -1-1-1--1-1-1--1-1-1---1-1-1--1-1-1--1-1-1--1-1-1-1-|
    * * *  * * *  * * *   * * *  * * *  * * *  * * * *  


 Raaaaahh!! \,,/

 1:16-1:31

 B|------------------------------------------------------------------------------|
F#|------------------------------------------------------------------------------|
 D|------------------------------------------------------------------------------|
 A|------------------------------------------------------------------------------| x2
 E|-0000-0000-0000--0000-0000-0000-000----0000-0000--0000-0000-0000-0-0-0-0------|
 A|-1111-1111-1111--1111-1111-1111-111-2--1111-1111--1111-1111-1111-1-1-1-1------| 
    **** **** ****  **** **** **** *** +  **** ****  **** **** ***  * * * *     


 1:32-1:47

 B|---------------------------------------------------------------|
F#|---------------------------------------------------------------|
 D|---------------------------------------------------------------|
 A|-3-----3-----3-------3-----3----4-----4-----4-------4-----4----| x2
 E|-1-0-1-1-0-1-1---0-1-1-0-1-1-0--2-0-1-2-0-1-2---0-1-2-0-1-2-0--|
 A|---0-1---0-1-----0-1---0-1---0----0-1---0-1-----0-1---0-1---0--| 
      * *   * *     * *   * *   *    * *   * *     * *   * *   *     


 1:48-1:51

 B|-----------------------------------------------|
F#|-16-15-------16-15-----------------------------|
 D|-------16-15-------16-15--15h16p15\13/15-------|
 A|-----------------------------------------------|
 E|-----------------------------------------------|
 A|-----------------------------------------------|  
                                                 

 1:52-1:55

 B|-----------------------------------------------------------|
F#|-----------------------------------------------------------|
 D|-11h13p11-10h11p10-8h10p8-7h8p7-4h7p4-3/4--3---------------|
 A|--------------------------------^-----^------4-3-1-3-4-3---| 
 E|---------------------------------------------*-*-----------| 
 A|-----------------------------------------------------------| 


 1:56-2:03

 B|-----------------------------------------------------------18-19-18-----|
F#|--------------------------------------------------16-15-16--------------|
 D|-------------------------------10-11-10/15--16-15-----------------------|
 A|-9-8-9-12--9-8-9-15--13-16-15-------------------------------------------|
 E|------------------------------------------------------------------------|
 A|------------------------------------------------------------------------|




 2:04-2:19

 B|-------------------------------------------------------------
F#|-------------------------------------------------------------
 D|-------------------------------------------------------------
 A|-------------------------------------------------------------
 E|-1111111111111111------------22222222222222225555555522222222
 A|-----------------333333331111---------------------------------    

   --------------------------------------------------------|
   --------------------------------------------------------|
   ---------------------------------------------3/4\3------|
   ---------------------------------------------X/X\X------| 
   1111111111111111------------2222222222222222-1/2\1-0-2--|
   ----------------333333331111-----------------------0-2--|
                                                      * *     



 2:20-2:21

 B|--------------|
F#|--------------|
 D|--------------|
 A|--------------|
 E|-0000--0000---|
 A|-1111--1111---|
    ****  ****    



 2:22-2:37

 B|------------------------------------------|
F#|------------------------------------------|
 D|----------------------------------3-3-----|
 A|----------------------------------X-X-----| x4
 E|-2222-1111-0000--2222-1111-0000-1-1-1-----|
 A|-2222-1111-0000--2222-1111-0000-1---------|  
    **** **** ****  **** **** **** *             



 2:38-2:39

 B|-----------------------|
F#|-----------------------|
 D|-----------------------|
 A|-----------------------|
 E|-0000-0000-0000-0000---|
 A|-1111-1111-1111-1111---|   
    **** **** **** ****   



 2:40-2:55

 B|--------------------------------------------------------------------------|
F#|--------------------------------------------------------------------------|
 D|--------------------------------------------------------------------------|
 A|--------------------------------------------------------------------------|  
 E|-0-2-1----2-1--1----2-1---2-1-0-1----0-2-1-----2-1--1----2-1---2-1-0-1----|     
 A|-0-2-1----2-1--1----2-1---2-1-0-1-3--0-2-1--0--2-1--1----2-1---2-1-0-1-3--| 
    * * *    * *  *    * *   * * * * ~  * * *  §  * *  *    * *   * * * * ~



 2:56-3:11

 B|--------------------------------------|
F#|--------------------------------------|
 D|--------------------------------------|
 A|--------------------------------------| x2
 E|-0-2-1----2-1--1----2-1---2-1-0-1-----|     
 A|-0-2-1----2-1--1----2-1---2-1-0-1-3---| 
    * * *    * *  *    * *   * * * * ~ 



 3:12

 B|-----------|
F#|-----------|
 D|-----------|
 A|-----------|
 E|-0-2-1-----|
 A|-0-2-1-----|      
    * * *   

 CLEANSE MY SOUL.. OF.. SIN!!
 3:15-3:30

 B|-------------------------------|
F#|-------------------------------|
 D|-------------------------------|
 A|-8-----7-----8-----7-----4-----| x2
 E|-5--0--4-----5--0--4--0--1-----|
 A|-5--0--4-----5--0--4--0--1-----|
       *           *     *        

 3:31-3:39

 B|-------|
F#|-------|
 D|-------|
 A|-7-----| Let it fade out..
 E|-4-----|
 A|-4-----|




 3:40-3:49

 B|-------------------------------------------------------|
F#|-------------------------------------------------------|
 D|-------------------------------------------------------|
 A|-------------------------------------------------------|
 E|-0-0000-0--0-0-0-0-0000-0000--0-0000-0--0-0-0-0--------|
 A|-1-1111-1--1-1-1-1-1111-1111--1-1111-1--1-1-1-1--0--0--|
    * **** *  * * * * **** ****  * **** *  * * * *        

 3:50-3:59

 B|-----------------------------------------------------------|
F#|-----------------------------------------------------------|
 D|-----------------------------------------------------------|
 A|-----------------------------------------------------------|
 E|----0-0-0--0--0-0-0-0--0000-0000--0-0000-0--0-0-0-0--------|
 A|-1--1-1-1--1--1-1-1-1--1111-1111--1-1111-1--1-1-1-1--0--0--| 
       * * *  *  * * * *  **** ****  * **** *  * * * *           

 4:00-4:18

 B|-------------------------------------------------------|
F#|-------------------------------------------------------|
 D|-------------------------------------------------------|
 A|-------------------------------------------------------| x2
 E|-0-0000-0--0-0-0-0-0000-0000--0-0000-0--0-0-0-0--------|
 A|-1-1111-1--1-1-1-1-1111-1111--1-1111-1--1-1-1-1--0--0--|
    * **** *  * * * * **** ****  * **** *  * * * *         

 4:19-4:35

 B|--------------------------|
F#|--------------------------|
 D|--------------------------|
 A|--------------0-----------|
 E|-0-0000-0--0--0-----------|
 A|-1-1111-1--1--0-----------|    
    * **** *  *  Let it ring. 
Suggest correction
What's this?
You can suggest a correction to this tab. Community and Mods will review your correction and vote to approve or reject it.
comments
print report bad tab
5 comments total. Showing first comments.
+2 reply
Brimit 21 wrote on April 28 2011, 06:13 pm

0:40-0:41

B|-------|
F#|-------|
D|-------|
A|-3--4--|
E|-1--2--|
A|-------|

+2 reply
minkar_man72 705 wrote on June 14 2011, 08:19 pm

your awesome just for having this tab

0 reply
weston1004 20 wrote on August 6 2011, 04:26 am

thanks for the tab :)

guest
You may want to rate the tab now too:
select rating
Please do not post tabs as comments. Select "correction" instead!