Oops, an error
Loading. Please wait.

Recreant Tab

version 3
version 3

Whole song

Interactive

8,585 views 27 this week
1 commentread comment
1 2 3 4 5
excellent!
x 7
add to favorites
launch autoscroll
font size
0
reset
how to read this tab
guitar tuner
Autoscroll
slow
fast
+/-
esc
set tempo
stop
Help us to improve Ultimate-Guitar.com Take our survey!
×
Author
Difficulty
Tuning
intermediate
A E A D F# B
This is how I think the song goes - learnt it by ear so tabs might not be 100% correct; 
but they're pretty close. Tab is for a 6 string guitar. Please let me know if i have 
made any mistakes :)

P = Pinch Harmonic.
H = Hammer On.
P = Pull Off.
. --> (Under Line) = Palm Mute

     |-------------------------------------------|
     |-------------------------------------------|
     |-------------------------------------------|
00:05|-------------------------------------------|
     |--------------------------0----------------|
     |--2--1--0--2--1--0--2--1----2--1--2--1--0--| x9 (on 3rd and 7th time, don't play 
the 1 and 0 on the end)

     |----------------------------------------------------|
     |----------------------------------------------------|
     |----------------------------------------------------|
00:39|----------------------------------------------------|
     |----5--4-----5--4----4---------5--4-----------------|
     |--0-------0--------3--------0--------0--5--2--1--2--|
                                                             x2
     ----------------------------------------------------|
     ----------------------------------------------------|
     ----------------------------------------------------|
     -------------------------------------0--5--2--1--2--|
     ----5--4-----5--4----4---------5--4--0--5--2--1--2--|
     --0-------0--------3--------0--------0--5--2--1--2--|

     |-------------------------------------------------------|
     |-------------------------------------------------------|
     |-------------------------------------------------------|
00:55|-------------------------------------------------3-----|
     |----5--4-----5--4----4---------5--4--------------------|
     |--0-------0--------3--------0--------0--5--2--1--------|
                                                       P
                                                                  x2
     -------------------------------------------------------|
     -------------------------------------------------------|
     -------------------------------------------------------|
     -------------------------------------------------------|
     ----5--4-----5--4----4---------5--4---------------3----|
     --0-------0--------3--------0--------0--5--2--1--------|
                                                       P

     |------------------------------------------------|
     |------------------------------------------------|
     |------------------------------------------------|
01:10|--1-0-0-0--1-0-0-0--1-0-0-0--1-4-3-1-0-----0----|
     |--1-0-0-0--1-0-0-0--1-0-0-0--1-4-3-1-0--3--0----|
     |--1-0-0-0--1-0-0-0--1-0-0-0--1-4-3-1-0-----0----|
        . . . .  . . . .  . . . .  . . . . .  P  .

     |----------------------------|
     |----------------------------|
     |----------------------------|
01:15|--0---00000000--0000--0000--|
     |--0---00000000--0000--0000--|  x3
     |--0---00000000--0000--0000--|
            ........  ....  ....

     |-------------------------|
     |-------------------------|
     |-------------------------|
01:26|--0---00000000--00--00---|
     |--0---00000000--00--00---|
     |--0---00000000--00--00---|
            ........  ..  ..

     |--------------------------|
     |--14--11--13--10--11--7---|
     |--------------------------|
01:30|--------------------------|
     |--------------------------|   x4
     |--------------------------|

     |------------------------------|
     |------------------------------|
     |--14--11--13--10--11--13------|
01:45|----------------------------0-|
     |----------------------------0-|  x4
     |----------------------------0-|
                                  .

Solo (sweep picking)

     |--22p17----------|
     |-------18--------|
     |---------17------|
02:01|-----------------|
     |-----------------|
     |-----------------|

     |--22p17---------17--22p17---------17--22p17--------------------17-|
     |-------18----18----------18----18---------18----------------18----|
     |----------19----------------19--------------19------------19------|
02:02|----------------------------------------------19--------19--------|
     |------------------------------------------------20-17-20----------|
     |------------------------------------------------------------------|

     --22p17----------17--22p17--------------------19-24p19-----------|
     -------18----18-----------18----------------20--------20---------|
     ----------19----------------19------------21------------21-------|
     ----------------------------------------20-----------------------|
     -----------------------------------19-22-------------------------| x4
     -----------------------------------------------------------------|

     |----------------------|
     |----------------------|
     |----------------------|
02:33|----------------------|
     |----5--4---5--4---4---|
     |--0------0------3-----|

     |----------------------------------------------------|
     |----------------------------------------------------|
     |----------------------------------------------------|
02:35|----------------------------------------------------|
     |----5--4-----5--4-----4--------5--4-----------------|
     |--0-------0--------3--------0--------0--5--2--1--2--|
                                                            x2
     ----------------------------------------------------|
     ----------------------------------------------------|
     ----------------------------------------------------|
     -------------------------------------0--5--2--1--2--|
     ----5--4-----5--4----4---------5--4--0--5--2--1--2--|
     --0-------0--------3--------0--------0--5--2--1--2--|

     |----------------------|
     |----------------------|
     |----------------------|
02:50|----------------------|
     |----5--4---5--4---4---|
     |--0------0------3-----|

     |-------------------------------------------------------|
     |-------------------------------------------------------|
     |-------------------------------------------------------|
02:54|-------------------------------------------------3-----|
     |----5--4-----5--4----4---------5--4--------------------|
     |--0-------0--------3--------0--------0--5--2--1--------|
                                                       P
                                                                  x2
     -------------------------------------------------------|
     -------------------------------------------------------|
     -------------------------------------------------------|
     -------------------------------------------------------|
     ----5--4-----5--4----4---------5--4---------------3----|
     --0-------0--------3--------0--------0--5--2--1--------|
                                                       P

     |---------------|
     |---------------|
     |---------------|
03:10|---------------|
     |--1-1-1-0-0-0--|
     |--2-2-2-0-0-0--|

     |-------------------                 ---------------------------|
     |-------------------                 ---------------------------|
     |------------------- 8th time ==>    ----------------[let ring]-|
03:13|-------------------                 --------------------0------|
     |--1-1-1---1-1-1-0-- x8              --1-1-1---1-1-1-0---0------|
     |--2-2-2---2-2-2-0--                 --2-2-2---2-2-2-0---0------|

     |-------------------------------------------------|
     |-------------------------------------------------|
     |-------------------------------------------------|
03:46|-------------------------------------------------|
     |--1-1-1-----------1-1-1---0--1-1-1----1-1-1---0--|
     |--2-2-2-----------2-2-2---0--2-2-2----2-2-2---0--|

     |-----------------------------------------|
     |-----------------------------------------|
     |-----------------------------------------|
04:05|-----------------------------------------|
     |--1-1-1--1-1-1-1-1-1-1-1-1-1-1-1--1-1-1--|
     |--2-2-2--2-2-2-2-2-2-2-2-2-2-2-2--2-2-2--|
               . . . . . . . . . . . .

      -------------------------|
      -------------------------|
      -------------------------|
04:13 -------------------------|
      --0---1-1-1--1111--1111--|
      --0---2-2-2--2222--2222--|
                   ....  ....

      ----------------------------------------|
      ----------------------------------------|
      ----------------------------------------|
04:18 ----------------------------------------|
      --1-1-1--1111-11-1111--111-1-----1-1-1--|
      --2-2-2--2222-22-2222--222-2-----2-2-2--|
               .... .. ....  ...
Suggest correction
comments
print report bad tab
1 comment total.
0 reply
Sky Ortiz 10 wrote on May 19 2012, 01:17 am

hey thanks ALOT i have been looking for 6string guitar tabs for this song

guest
You may want to rate the tab now too:
select rating
Wanna post a correction for this tab? Suggest correction