Oops, an error
Loading. Please wait.

Recreant Tab

version 3
version 3

Whole song

Interactive

9,401 views 33 this week
1 commentread comment
1 2 3 4 5
x 7
add to favorites
×
Save as Personal and add changes to this tab that will be seen only by you. Learn more ›
×
You can save this tab as Personal to edit and correct it or add notes. All changes will be seen only by you. Learn more »
save as personal
new!
launch autoscroll
font size
0
reset
how to read this tab
guitar tuner
Autoscroll
slow
fast
+/-
esc
set tempo
stop
Author
Difficulty
Tuning
intermediate
A E A D F# B
This is how I think the song goes - learnt it by ear so tabs might not be 100% correct; 
but they're pretty close. Tab is for a 6 string guitar. Please let me know if i have 
made any mistakes :)

  00:05
B |-------------------------------------------|
F#|-------------------------------------------|
D |-------------------------------------------|
A |-------------------------------------------|
E |--------------------------0----------------|
A |--2--1--0--2--1--0--2--1----2--1--2--1--0--| x9 (on 3rd and 7th time, don't play 
the 1 and 0 on the end)

  00:39
B |----------------------------------------------------|
F#|----------------------------------------------------|
D |----------------------------------------------------|
A |----------------------------------------------------|
E |----5--4-----5--4----4---------5--4-----------------|
A |--0-------0--------3--------0--------0--5--2--1--2--|
                                                        x2
B |----------------------------------------------------|
F#|----------------------------------------------------|
D |----------------------------------------------------|
A |-------------------------------------0--5--2--1--2--|
E |----5--4-----5--4----4---------5--4--0--5--2--1--2--|
A |--0-------0--------3--------0--------0--5--2--1--2--|

  00:55
B |-------------------------------------------------------|
F#|-------------------------------------------------------|
D |-------------------------------------------------------|
A |-------------------------------------------------3-----|
E |----5--4-----5--4----4---------5--4--------------------|
A |--0-------0--------3--------0--------0--5--2--1--P-----|
                                                           x2
B |-------------------------------------------------------|
F#|-------------------------------------------------------|
D |-------------------------------------------------------|
A |-------------------------------------------------------|
E |----5--4-----5--4----4---------5--4---------------3----|
A |--0-------0--------3--------0--------0--5--2--1---P----|
                                                       
  01:10
B |------------------------------------------------|
F#|------------------------------------------------|
D |------------------------------------------------|
A |--1-0-0-0--1-0-0-0--1-0-0-0--1-4-3-1-0-----0----|
E |--1-0-0-0--1-0-0-0--1-0-0-0--1-4-3-1-0--3--0----|
A |--1-0-0-0--1-0-0-0--1-0-0-0--1-4-3-1-0--P--0----|
   . . . .  . . . .  . . . .  . . . . .     .

  01:15
B |----------------------------|
F#|----------------------------|
D |----------------------------|
A |--0---00000000--0000--0000--|
E |--0---00000000--0000--0000--|  x3
A |--0---00000000--0000--0000--|
         ........  ....  ....

  01:26
B |-------------------------|
F#|-------------------------|
D |-------------------------|
A |--0---00000000--00--00---|
E |--0---00000000--00--00---|
A |--0---00000000--00--00---|
         ........  ..  ..

  01:30
B |--------------------------|
F#|--14--11--13--10--11--7---|
D |--------------------------|
A |--------------------------|
E |--------------------------|   x4
A |--------------------------|

  01:45
B |------------------------------|
F#|------------------------------|
D |--14--11--13--10--11--13------|
A |----------------------------0-|
E |----------------------------0-|  x4
A |----------------------------0-|
                             .

Solo (sweep picking)

  02:01
B |--22p17----------|
F#|-------18--------|
D |---------17------|
A |-----------------|
E |-----------------|
A |-----------------|

  02:02
B |--22p17---------17--22p17---------17--22p17--------------------17-|
F#|-------18----18----------18----18---------18----------------18----|
D |----------19----------------19--------------19------------19------|
A |----------------------------------------------19--------19--------|
E |------------------------------------------------20-17-20----------|
A |------------------------------------------------------------------|

B |--22p17----------17--22p17--------------------19-24p19-----------|
F#|-------18----18-----------18----------------20--------20---------|
D |----------19----------------19------------21------------21-------|
A |----------------------------------------20-----------------------|
E |-----------------------------------19-22-------------------------| x4
A |-----------------------------------------------------------------|

  02:33
B |----------------------|
F#|----------------------|
D |----------------------|
A |----------------------|
E |----5--4---5--4---4---|
A |--0------0------3-----|

  02:35
B |----------------------------------------------------|
F#|----------------------------------------------------|
D |----------------------------------------------------|
A |----------------------------------------------------|
E |----5--4-----5--4-----4--------5--4-----------------|
A |--0-------0--------3--------0--------0--5--2--1--2--|
                                                         x2
B |----------------------------------------------------|
F#|----------------------------------------------------|
D |----------------------------------------------------|
A |-------------------------------------0--5--2--1--2--|
E |----5--4-----5--4----4---------5--4--0--5--2--1--2--|
A |--0-------0--------3--------0--------0--5--2--1--2--|

  02:50
B |----------------------|
F#|----------------------|
D |----------------------|
A |----------------------|
E |----5--4---5--4---4---|
A |--0------0------3-----|

  02:54
B |-------------------------------------------------------|
F#|-------------------------------------------------------|
D |-------------------------------------------------------|
A |-------------------------------------------------3-----|
E |----5--4-----5--4----4---------5--4--------------------|
A |--0-------0--------3--------0--------0--5--2--1--P-----|
                                                            x2
B |-------------------------------------------------------|
F#|-------------------------------------------------------|
D |-------------------------------------------------------|
A |-------------------------------------------------------|
E |----5--4-----5--4----4---------5--4---------------3----|
A |--0-------0--------3--------0--------0--5--2--1---P----|
                                                       
  03:10
B |---------------|
F#|---------------|
D |---------------|
A |---------------|
E |--1-1-1-0-0-0--|
A |--2-2-2-0-0-0--|

  03:13
B |-------------------                 ---------------------------|
F#|-------------------                 ---------------------------|
D |-------------------   8th time ==>  ----------------[let ring]-|
A |-------------------                 --------------------0------|
E |--1-1-1---1-1-1-0-- x8              --1-1-1---1-1-1-0---0------|
A |--2-2-2---2-2-2-0--                 --2-2-2---2-2-2-0---0------|

  03:46
B |-------------------------------------------------|
F#|-------------------------------------------------|
D |-------------------------------------------------|
A |-------------------------------------------------|
E |--1-1-1-----------1-1-1---0--1-1-1----1-1-1---0--|
A |--2-2-2-----------2-2-2---0--2-2-2----2-2-2---0--|

  04:05
B |-----------------------------------------|
F#|-----------------------------------------|
D |-----------------------------------------|
A |-----------------------------------------|
E |--1-1-1--1-1-1-1-1-1-1-1-1-1-1-1--1-1-1--|
A |--2-2-2--2-2-2-2-2-2-2-2-2-2-2-2--2-2-2--|
            . . . . . . . . . . . .

   04:13
B |-------------------------|
F#|-------------------------|
D |-------------------------|
A |-------------------------|
E |--0---1-1-1--1111--1111--|
A |--0---2-2-2--2222--2222--|
               ....  ....

   04:18
B |----------------------------------------|
F#|----------------------------------------|
D |----------------------------------------|
A |----------------------------------------|
E |--1-1-1--1111-11-1111--111-1-----1-1-1--|
A |--2-2-2--2222-22-2222--222-2-----2-2-2--|
            .... .. ....  ...

************************************

P = Pinch Harmonic.
H = Hammer On.
P = Pull Off.
. --> (Under Line) = Palm Mute

************************************
Suggest correction
comments
print report bad tab
1 comment total.
0 reply
Sky Ortiz 10 May 18, 2012 09:17 PM

hey thanks ALOT i have been looking for 6string guitar tabs for this song

guest
You may want to rate the tab now too:
select rating
Wanna post a correction for this tab? Suggest correction