Oops, an error
Loading. Please wait.

Revenant Bass Tab

version 1
version 1

Whole song

Interactive

3,178 views 3 this week
no commentswrite comment
1 2 3 4 5
please rate
add to favorites
launch autoscroll
font size
0
reset
guitar tuner
Tab Pro tools
  • play this tab
  • loop segment
  • change instrument
  • show fretboard
  • metronome
Autoscroll
slow
fast
+/-
esc
set tempo
stop
Contributor
Difficulty
Tuning
novice
A E A D F# B
chelsea grin:revenant

4-string bass tuning:AEAD.David plays a 5-string,but you dont need one to play 
this.tabbed by ear,should be accurate.Enjoy:)

D|---------------------------------------------------------------------------|
A|---------------------------------------------------------------------------|
E|---------------------------------------------------------------------------|
A|0000-00-0000-0000-0000-0-0-0--0000-00-0000-0000-0000-0-0-0(play 2x)0-3-5-0-|

D|---------------------------------------------------------------------------|
A|---------------------------------------------------------------------------|
E|---------------------------------------------6-5-3-2-|---------------------|
A|-0*-2*-3*-5*-6*-5*-6*-5*-3*-2*--0*-2*-3*-6*-5*-------|--(play 2x,listen for 
times note is played on *)

D|---------------------------------------------------------------------------|
A|---------------------------------------------------------------------------|
E|---------------------------------------------------------------------------|
A|00-00-0-0-0-00-0-0-0-00-0-0-0-000-000-0-0-0-00-0-0-0-----------------------|(play 2x)


D|---------------------------------------------------------------------------|
A|---------------------------------------------------------------------------|
E|---------------------------------------------------------------------------|
A|0--3-5-3-0-5-6-3-0--(play next part 4x)0-000-000-000-0000-00000------------|
 

D|---------------------------------------------------------------------------|
A|---------------------------------------------------------------------------|
E|---------------------------------------------6-5-3-2----------------------||
A|0*-2*-3*-5*-6*-5*-6*-5*-3*-2*--0*-2*-3*-6*-5*--------|(listen for times played on *)

D|---------------------------------------------------------------------------|
A|---------------------------------------------------------------------------|
E|---------------------------------------------------------------------------|
A|00-00-0-0-0-00-0-0-0-00-0-0-0-000-000-0-0-0-00-0-0-0-----------------------|(play 4x)

D|---------------------------------------------------------------------------|
A|---------------------------------------------------------------------------|
E|---------------------------------------------------------------------------|
A|3-3333---333333---0000-0-0000-0-0000-0-0000-0------------------------------|(play 4x)
END.
comments
We did not receive enough feedback on this tab! Please rate:
print report bad tab
1 2 3 4 5
I want to post or [tab]
guest
You may want to rate the tab now too:
select rating
Please do not post tabs as comments. Select "correction" instead!