Oops, an error
Loading. Please wait.

Skin Deep tab

version 1
version 1

Whole song

Interactive

2,269 views 27 this week
no commentswrite comment
1 2 3 4 5
2 more votes to show rating
add to favorites
×
Save as Personal and add changes to this tab that will be seen only by you. Learn more ›
×
You can save this tab as Personal to edit and correct it or add notes. All changes will be seen only by you. Learn more »
launch autoscroll
font size
0
reset
how to read this tab
guitar tuner
edit
Autoscroll
slow
fast
+/-
esc
set tempo
stop
Author
I'm a drummer, so the rhythm in the chorus might be a little off - I was taking an indication from the kick
drum as it's quite a heavy chorus. It's the best I could do.

Tuning: Drop G (G, D, G, C, F, A, D)
Tempo: 110 BPM


[Clean Intro] (1)

     E  E  E  E  E  E  E  E     E  E  E  E  E  E  E  E   
D||--------------------------|--------------------------|
A||--------------------------|--------------------------|
F||--3-----3-----5-----5-----|--6-----6-----8-----8-----|
C||-----7-----7-----8-----8--|-----8-----8-----7-----7--|
G||--------------------------|--------------------------|
D||--------------------------|--------------------------|
G||--------------------------|--------------------------|


    E  E   E  E   E  E  E  E      E   E   E   E   E   E   E   E                   
D|----------------------------|----------------------------------|
A|------------7---------------|--------------11------------------|
F|--------10-----10-----------|----------14------14--------------|
C|-----7----------------7-----|------10------------------10------|
G|--9----------------9-----9--|--12------------------12------12--|
D|----------------------------|----------------------------------|
G|----------------------------|----------------------------------|


[Distorted Intro] (2)::

     PM PM PM TP     PM PM  
     E  E  E  Q.     E  E   
D||------------------------|
A||------------------------|
F||------------------------|
C||------------------------|
G||------------------------|
D||--1--0--1--1------1--0--|
G||--1--0--1---------1--0--|


   PM TP PM PM PM PM PM PM PM    PM PM PM TP     PM PM  
              |--3--|                                  
    E  E  E  E  E  E  E  E  E     E  E  E  Q.     E  E   
D|-----------------------------|------------------------|
A|-----------------------------|------------------------|
F|-----------------------------|------------------------|
C|-----------------------------|------------------------|
G|-----------------------------|------------------------|
D|--1--2--1--0--1--0--0--0--0--|--1--0--1--1------1--0--|
G|--1-----1--0--1--0--4--3--0--|--1--0--1---------1--0--|


   PM TP PM PM PM PM PM PM PM    PM PM PM TP     PM PM  
               |--3--|                                  
   E  E  E  E  E  E  E  E  E     E  E  E  Q.     E  E   
D|-----------------------------|------------------------|
A|-----------------------------|------------------------|
F|-----------------------------|------------------------|
C|-----------------------------|------------------------|
G|-----------------------------|------------------------|
D|--1--2--1--0--1--0--0--0--0--|--1--0--1--1------1--0--|
G|--1-----1--0--1--0--4--3--0--|--1--0--1---------1--0--|


    PM TP PM PM PM PM PM PM PM  
                |--3--|                                    
    E  E  E  E  E  E  E  E  E   
D|-----------------------------|
A|-----------------------------|
F|-----------------------------|
C|-----------------------------|
G|-----------------------------|
D|--1--2--1--0--1--0--0--0--0--|
G|--1-----1--0--1--0--4--3--0--|



Verse 1 ("I'll bleed my goddamn eyes!")

    PM PM    PM PM PM PM 
    E  E  E  E  E  E  E  E    
D|--------------------------| 
A|--------------------------|
F|--------------------------| 
C|--------------------------| 
G|--------------------------|
D|--1--0-----3--2--3--2-----|
G|--1--0-----4--3--4--3-----|


              TP   PM PM    PM PM    PM PM PM PM                 TP   PM PM  
    Q    Q    Q    E  E     E  E  E  E  E  E  E  E     Q    Q    Q    E  E   
D|-----------------------|--------------------------|-----------------------|
A|-----------------------|--------------------------|-----------------------|
F|-----------------------|--------------------------|-----------------------|
C|-----------------------|--------------------------|-----------------------|
G|-----------------------|--------------------------|-----------------------|
D|--0----0----0----0--0--|--1--0-----3--2--3--2-----|--0----0----0----0--0--|
G|--1----1---------1--1--|--1--0-----4--3--4--3-----|--1----1---------1--1--|


    PM PM    PM PM PM PM       TP    TP    TP      TP    PM PM    PM PM PM PM     
    E  E  E  E  E  E  E  E     E  E  E  E  Q    E  E     E  E  E  E  E  E  E  E   
D|
A|--------------------------|-------------------------|--------------------------|
F|--------------------------|-------------------------|--------------------------|
C|--------------------------|-------------------------|--------------------------|
G|--------------------------|-------------------------|--------------------------|
D|--1--0-----3--2--3--2-----|--0--0--0--0--0----0--0--|--1--0-----3--2--3--2-----|
G|--1--0-----4--3--4--3-----|--1--1--1--1-------1--1--|--1--0-----4--3--4--3-----|


    TP    TP    TP      TP    PM PM    PM PM PM PM       TP    TP    TP   TP    
    E  E  E  E  Q    E  E     E  E  E  E  E  E  E  E     E  E  E  E  Q    Q     
D|-------------------------|--------------------------|------------------------|
A|-------------------------|--------------------------|------------------------|
F|-------------------------|--------------------------|------------------------|
C|-------------------------|--------------------------|------------------------|
G|-------------------------|--------------------------|------------------------|
D|--0--0--0--0--0----0--0--|--1--0-----3--2--3--2-----|--0--0--0--0--0----0----|
G|--1--1--1--1-------1--1--|--1--0-----4--3--4--3-----|--1--1--1--1-------1----|


    PM PM    PM PM PM PM       TP    TP    TP   TP    
    E  E  E  E  E  E  E  E     E  E  E  E  Q    Q     
D|--------------------------|------------------------|
A|--------------------------|------------------------|
F|--------------------------|------------------------|
C|--------------------------|------------------------|
G|--------------------------|------------------------|
D|--1--0-----3--2--3--2-----|--0--0--0--0--0----0----|
G|--1--0-----4--3--4--3-----|--1--1--1--1-------1----|


[Chorus] ("I despise living lies")::

Rhythm::


    PM PM PM PM TP PM PM PM TP         PM PM PM TP   TP    
    S  S  S  S  E  E  E  E  Q       E  E  E  E  Q    Q     
D|-------------------------------|------------------------|
A|-------------------------------|------------------------|
F|-------------------------------|------------------------|
C|-------------------------------|------------------------|
G|-------------------------------|------------------------|
D|--0--0--0--0--0--0--0--0--0----|-----0--0--0--1----0----|
G|--0--0--0--0-----0--0--0-------|-----0--0--0------------|


    PM PM PM PM TP PM PM PM TP         PM PM PM TP   TP    
    S  S  S  S  E  E  E  E  Q       E  E  E  E  Q    Q     
D|-------------------------------|------------------------|
A|-------------------------------|------------------------|
F|-------------------------------|------------------------|
C|-------------------------------|------------------------|
G|-------------------------------|------------------------|
D|--0--0--0--0--0--0--0--0--0----|-----0--0--0--1----0----|
G|--0--0--0--0-----0--0--0-------|-----0--0--0------------|


    PM PM PM PM PM PM PM PM PM   PM PM PM    
    E  E  E  E  E  E  T  T  T  T T  T  T  T  
D|------------------------------------------|
A|------------------------------------------|
F|------------------------------------------|
C|------------------------------------------|
G|------------------------------------------|
D|--0--0--0--0--0--0--0--0--0----0--0--0----|
G|--0--0--0--0--0--0--0--0--0----0--0--0----|


    PM PM PM   PM PM PM   PM PM PM PM PM      PM PM PM PM TP PM PM PM TP    
    T  T  T  T T  T  T  T E  E  E  E  Q       S  S  S  S  E  E  E  E  Q     
D|-----------------------------------------|-------------------------------|
A|-----------------------------------------|-------------------------------|
F|-----------------------------------------|-------------------------------|
C|-----------------------------------------|-------------------------------|
G|-----------------------------------------|-------------------------------|
D|--0--0--0----0--0--0----0--0--0--0--0----|--0--0--0--0--0--0--0--0--0----|
G|--0--0--0----0--0--0----0--0--0--0--0----|--0--0--0--0-----0--0--0-------|


       PM PM PM                    
    E  E  E  E  H        
D|-----------------------|
A|-----------------------|
F|-----------------------|
C|-----------------------|
G|-----------------------|
D|-----0--0--0-----------|
G|-----0--0--0-----------|



Lead::


    E  E  E  E  E  E  E  E     E  E  E  E  E  E  E  E   
D|--------------------------|--------------------------|
A|--------------------------|--------------------------|
F|--3-----3-----5-----5-----|--6-----6-----8-----8-----|
C|-----7-----7-----8-----8--|-----8-----8-----7-----7--|
G|--------------------------|--------------------------|
D|--------------------------|--------------------------|
G|--------------------------|--------------------------|


    E  E   E  E   E  E  E  E      E   E   E   E   E   E   E   E   
D|----------------------------|----------------------------------|
A|------------7---------------|--------------11------------------|
F|--------10-----10-----------|----------14------14--------------|
C|-----7----------------7-----|------10------------------10------|
G|--9----------------9-----9--|--12------------------12------12--|
D|----------------------------|----------------------------------|
G|----------------------------|----------------------------------|


    E   E  E   E  E   E  E   E      E   E   E   E   E   E   E   E   
D|------------------------------|----------------------------------|
A|------------------------------|----------------------------------|
F|--6------6------8------8------|--10------10------11------11------|
C|-----10-----10-----10-----10--|------11------11------10------10--|
G|------------------------------|----------------------------------|
D|------------------------------|----------------------------------|
G|------------------------------|----------------------------------|


    E   E   E   E   E   E   E   E      E   E   E   E   E   E   E   E   
D|----------------------------------|----------------------------------|
A|--------------11------------------|--------------14------------------|
F|----------14------14--------------|----------17------17--------------|
C|------10------------------10------|------13------------------13------|
G|--12------------------12------12--|--15------------------15------15--|
D|----------------------------------|----------------------------------|
G|----------------------------------|----------------------------------|


[Verse 2] ("Fool me once")::


Main Riff::
[Note:: The additional guitar is just a soft palm-muted B5 filling in the pauses]


    PM PM    PM PM PM             PM PM PM              
    E  E  E  E  E  E  E  E     E  E  E  E  E  E  E  E   
D|--------------------------|--------------------------|
A|--------------------------|--------------------------|
F|--------------------------|--------------------------|
C|--------------------------|--------------------------|
G|--------------------------|--------------------------|
D|--1--0-----1--0--1--------|-----1--0--1--------------|
G|--1--0-----1--0--1--------|-----1--0--1--------------|


    PM PM   PM PM PM PM             PM PM PM   PH            
    E  E  S S  E  E  E  E  E     E  E  E  E    Q    Q        
D|----------------------------|-----------------------------|
A|----------------------------|-----------------------------|
F|----------------------------|-----------------------------|
C|----------------------------|-----------------------------|
G|----------------------------|-----------------------------|
D|--1--0----1--1--0--1--------|-----1--0--1-----------------|
G|--1--0----1--1--0--1--------|-----1--0--1--<>3----Lbrb----|


    PM PM    PM PM PM             PM PM PM              
    E  E  E  E  E  E  E  E     E  E  E  E  E  E  E  E   
D|--------------------------|--------------------------|
A|--------------------------|--------------------------|
F|--------------------------|--------------------------|
C|--------------------------|--------------------------|
G|--------------------------|--------------------------|
D|--1--0-----1--0--1--------|-----1--0--1--------------|
G|--1--0-----1--0--1--------|-----1--0--1--------------|


    PM PM    PM PM PM             PM PM PM          
    E  E  E  E  E  E  E  E     E  E  E  E  H          
D|--------------------------|-----------------------|
A|--------------------------|-----------------------|
F|--------------------------|-----------------------|
C|--------------------------|-----------------------|
G|--------------------------|-----------------------|
D|--1--0-----1--0--1--------|-----1--0--1-----------|
G|--1--0-----1--0--1--------|-----1--0--1-----------|


[Break]

    PM PM PM TP     PM PM  
    E  E  E  Q.     E  E   
D|------------------------|
A|------------------------|
F|------------------------|
C|------------------------|
G|------------------------|
D|--1--0--1--1------1--0--|
G|--1--0--1---------1--0--|


    PM TP PM PM PM PM PM PM PM    PM PM PM TP     PM PM  
                |--3--|                                  
    E  E  E  E  E  E  E  E  E     E  E  E  Q.     E  E   
D|-----------------------------|------------------------|
A|-----------------------------|------------------------|
F|-----------------------------|------------------------|
C|-----------------------------|------------------------|
G|-----------------------------|------------------------|
D|--1--2--1--0--1--0--0--0--0--|--1--0--1--1------1--0--|
G|--1-----1--0--1--0--4--3--0--|--1--0--1---------1--0--|


    PM TP PM PM PM PM PM PM PM    PM PM PM TP     PM PM  
                |--3--|                                  
    E  E  E  E  E  E  E  E  E     E  E  E  Q.     E  E   
D|-----------------------------|------------------------|
A|-----------------------------|------------------------|
F|-----------------------------|------------------------|
C|-----------------------------|------------------------|
G|-----------------------------|------------------------|
D|--1--2--1--0--1--0--0--0--0--|--1--0--1--1------1--0--|
G|--1-----1--0--1--0--4--3--0--|--1--0--1---------1--0--|


    PM TP PM PM PM PM PM PM PM    PM PM PM TP     PM PM  
                |--3--|                                  
    E  E  E  E  E  E  E  E  E     E  E  E  Q.     E  E   
D|-----------------------------|------------------------|
A|-----------------------------|------------------------|
F|-----------------------------|------------------------|
C|-----------------------------|------------------------|
G|-----------------------------|------------------------|
D|--1--2--1--0--1--0--0--0--0--|--1--0--1--1------1--0--|
G|--1-----1--0--1--0--4--3--0--|--1--0--1---------1--0--|


    PM TP PM PM PM PM PM PM PM               
                |--3--|                                    
    E  E  E  E  E  E  E  E  E     
D|-----------------------------|
A|-----------------------------|
F|-----------------------------|
C|-----------------------------|
G|-----------------------------|
D|--1--2--1--0--1--0--0--0--0--|
G|--1-----1--0--1--0--4--3--0--|


[Verse 3] ("Begging for your life")


Left Channel::

                      PM PM  
                           
    E  E  E  E  E  E  E  E   
D|--------------------------|
A|--------------------------|
F|--------------------------|
C|--------------------------|
G|--------------------------|
D|--------------------1--1--|
G|--------------------1--1--|


    PM PM PM                   
    E  E  E  E  E  E  E  E   
D|-------------------------|
A|--------------------------|
F|--------------------------|
C|--------------------------|
G|--------------------------|
D|--1--1--1-----------------|
G|--1--1--1-----------------|


Right Channel::

                         
    E  E  E  E  E  E  E  E   
D|--------------------------|
A|--------------------------|
F|--------------------------|
C|--------------------------|
G|--------------------------|
D|--1--1--1--1--1-----------|
G|--1--1--1--1--1-----------|


                PM PM         
    E  E  E  E  E  E  E  E    
D|--------------------------|
A|--------------------------|
F|--------------------------|
C|--------------------------|
G|--------------------------|
D|--------------1--1--------|
G|--------------1--1--------|


Both guitars::


    PM PM PM PM PM    PM PM  
    E  E  E  E  E  E  E  E   
D|--------------------------|
A|--------------------------|
F|--------------------------|
C|--------------------------|
G|--------------------------|
D|--1--1--1--1--1-----1--1--|
G|--1--1--1--1--1-----1--1--|


    PM PM PM       PM     PM        PM PM PM PM PM    PM PM  
    E  E  E  E  E  S  S S S  S S    E  E  E  E  E  E  E  E   
D|-------------------------------|--------------------------|
A|-------------------------------|--------------------------|
F|-------------------------------|--------------------------|
C|-------------------------------|--------------------------|
G|-------------------------------|--------------------------|
D|--1--1--1--------1--x-x-1--x-x-|--1--1--1--1--1-----1--1--|
G|--1--1--1--------1--x-x-1--x-x-|--1--1--1--1--1-----1--1--|


    PM PM PM    PM PM          PM PM PM PM PM    PM PM    PM PM PM                
    E  E  E  E  E  E  E  E     E  E  E  E  E  E  E  E     E  E  E  E  E  E.  E.   
D|--------------------------|--------------------------|-------------------------|
A|--------------------------|--------------------------|-------------------------|
F|--------------------------|--------------------------|-------------------------|
C|--------------------------|--------------------------|-------------------------|
G|--------------------------|--------------------------|-------------------------|
D|--1--1--1-----1--1--------|--1--1--1--1--1-----1--1--|--1--1--1--------1---1---|
G|--1--1--1-----1--1--------|--1--1--1--1--1-----1--1--|--1--1--1--------1---1---|


    PM PM PM PM PM PM    PM PM PM    PM PM PM PM    PM PM        
    S  S  E  E  E  E  E  E  S  S     E  E  S  S  E  E  E  E  E   
D|--------------------------------|-----------------------------|
A|--------------------------------|-----------------------------|
F|--------------------------------|-----------------------------|
C|--------------------------------|-----------------------------|
G|--------------------------------|-----------------------------|
D|--1--1--1--1--1--1-----1--1--1--|--1--1--1--1-----1--1--------|
G|--1--1--1--1--1--1-----1--1--1--|--1--1--1--1-----1--1--------|


    PM PM PM PM PM PM    PM PM PM    PM PM PM PM                
    S  S  E  E  E  E  E  E  S  S     E  E  S  S  E  E  E.  E.   
D|--------------------------------|----------------------------|
A|--------------------------------|----------------------------|
F|--------------------------------|----------------------------|
C|--------------------------------|----------------------------|
G|--------------------------------|----------------------------|
D|--1--1--1--1--1--1-----1--1--1--|--1--1--1--1--------1---1---|
G|--1--1--1--1--1--1-----1--1--1--|--1--1--1--1--------1---1---|


[Chorus] ("I despise living lies")::

Rhythm::


    PM PM PM PM TP PM PM PM TP         PM PM PM TP   TP    
    S  S  S  S  E  E  E  E  Q       E  E  E  E  Q    Q     
D|-------------------------------|------------------------|
A|-------------------------------|------------------------|
F|-------------------------------|------------------------|
C|-------------------------------|------------------------|
G|-------------------------------|------------------------|
D|--0--0--0--0--0--0--0--0--0----|-----0--0--0--1----0----|
G|--0--0--0--0-----0--0--0-------|-----0--0--0------------|


    PM PM PM PM TP PM PM PM TP         PM PM PM TP   TP    
    S  S  S  S  E  E  E  E  Q       E  E  E  E  Q    Q     
D|-------------------------------|------------------------|
A|-------------------------------|------------------------|
F|-------------------------------|------------------------|
C|-------------------------------|------------------------|
G|-------------------------------|------------------------|
D|--0--0--0--0--0--0--0--0--0----|-----0--0--0--1----0----|
G|--0--0--0--0-----0--0--0-------|-----0--0--0------------|


    PM PM PM PM PM PM PM PM PM   PM PM PM    
    E  E  E  E  E  E  T  T  T  T T  T  T  T  
D|------------------------------------------|
A|------------------------------------------|
F|------------------------------------------|
C|------------------------------------------|
G|------------------------------------------|
D|--0--0--0--0--0--0--0--0--0----0--0--0----|
G|--0--0--0--0--0--0--0--0--0----0--0--0----|


    PM PM PM   PM PM PM   PM PM PM PM PM      PM PM PM PM TP PM PM PM TP    
    T  T  T  T T  T  T  T E  E  E  E  Q       S  S  S  S  E  E  E  E  Q     
D|-----------------------------------------|-------------------------------|
A|-----------------------------------------|-------------------------------|
F|-----------------------------------------|-------------------------------|
C|-----------------------------------------|-------------------------------|
G|-----------------------------------------|-------------------------------|
D|--0--0--0----0--0--0----0--0--0--0--0----|--0--0--0--0--0--0--0--0--0----|
G|--0--0--0----0--0--0----0--0--0--0--0----|--0--0--0--0-----0--0--0-------|


       PM PM PM PM PM PM PM PM PM          
    E  E  E  E  E  E  S  S  S  S           
D|--------------------------------|
A|--------------------------------|
F|--------------------------------|
C|--------------------------------|
G|--------------------------------|
D|-----0--0--0--0--0--0--0--0--0--|
G|-----0--0--0--0--0--0--0--0--0--|


Lead::


    E  E  E  E  E  E  E  E     E  E  E  E  E  E  E  E   
D|--------------------------|--------------------------|
A|--------------------------|--------------------------|
F|--3-----3-----5-----5-----|--6-----6-----8-----8-----|
C|-----7-----7-----8-----8--|-----8-----8-----7-----7--|
G|--------------------------|--------------------------|
D|--------------------------|--------------------------|
G|--------------------------|--------------------------|


    E  E   E  E   E  E  E  E      E   E   E   E   E   E   E   E   
D|----------------------------|----------------------------------|
A|------------7---------------|--------------11------------------|
F|--------10-----10-----------|----------14------14--------------|
C|-----7----------------7-----|------10------------------10------|
G|--9----------------9-----9--|--12------------------12------12--|
D|----------------------------|----------------------------------|
G|----------------------------|----------------------------------|


    E   E  E   E  E   E  E   E      E   E   E   E   E   E   E   E   
D|------------------------------|----------------------------------|
A|------------------------------|----------------------------------|
F|--6------6------8------8------|--10------10------11------11------|
C|-----10-----10-----10-----10--|------11------11------10------10--|
G|------------------------------|----------------------------------|
D|------------------------------|----------------------------------|
G|------------------------------|----------------------------------|


    E   E   E   E   E   E   E   E      E   E   E   E   E   E   E   E   
D|----------------------------------|----------------------------------|
A|--------------11------------------|--------------14------------------|
F|----------14------14--------------|----------17------17--------------|
C|------10------------------10------|------13------------------13------|
G|--12------------------12------12--|--15------------------15------15--|
D|----------------------------------|----------------------------------|
G|----------------------------------|----------------------------------|


[Bridge/Solo]

(Note: I'm not so sure about the harmonies, but it's the best I could come up with. I bumped one side up with
a third interval in a G# Hungarian Minor scale with an added C#.)


Left Channel::


   PM PM      PM PM           
   S  S  Q    S  S  H         
D|----------------------------|
A|----------------------------|
F|----------------------------|
C|----------------------------|
G|----------------------------|
D|--0--0-------0--0-----------|
G|--0--0-------0--0-----------|


         PM PM PM PM             PM PM PM    PM        PM PM PM PM  
    Q    S  S  S  S  H           S  S  S  E  S  Q.     S  S  S  S   
D|----------------------------|------------------------------------|
A|----------------------------|------------------------------------|
F|----------------------------|------------------------------------|
C|----------------------------|------------------------------------|
G|----------------------------|------------------------------------|
D|-------0--0--0--0-----------|--0--0--0-----0---------0--0--0--0--|
G|-------0--0--0--0-----------|--0--0--0-----0---------0--0--0--0--|


                 PM PM PM PM    PM PM         PM PM                  
    H.           S  S  S  S     S  S  S S S S S  S  S S S S S S S S  
D|---------------------------|--------------------------------------|
A|---------------------------|--------------------------------------|
F|---------------------------|--------------------------------------|
C|---------------------------|--------------------------------------|
G|---------------------------|----------------------7---------------|
D|---------------0--0--0--0--|--0--0--1-2-5-2-0--0----9-8-6-5-------|
G|---------------0--0--0--0--|--0--0----------0--0------------9-8-9-|


            PM PM PM PM                  
    S S S S S  S  S  S  S S S S S S S S  
D|--------------------------------------|
A|--------------------------------------|
F|--------------------------------------|
C|--------7-----------------------------|
G|------8-----------------------------8-|
D|--8-9-----0--0--0--0--------5-6-8-9---|
G|----------0--0--0--0--9-8-9-----------|


    PM PM PM     PM              PM PM PM PM  
    S  S  S  S S S  S S  S S S S S  S  S  S   
D|-------------------------------------------|
A|-------------------------------------------|
F|-------------------------------------------|
C|--------------------7-10-7-----------------|
G|-----------9-8----9--------8-9-------------|
D|--0--0--0------0---------------0--0--0--0--|
G|--0--0--0------0---------------0--0--0--0--|


                            PM PM PM PM           
    S S S S S S S S S S S S S  S  S  S   
D|--------------------------------------|
A|--------------------------------------|
F|--------------------------------------|
C|--------------------------------------|
G|--------------4-8-7-4-----------------|
D|--------5-6-8---------8-5-0--0--0--0--|
G|--9-8-9-------------------0--0--0--0--|


Right Channel::


    PM PM         PM PM                  
    S  S  S S S S S  S  S S S S S S S S  
D|--------------------------------------|
A|--------------------------------------|
F|--------------------------------------|
C|--------------------------------------|
G|----------------------7---------------|
D|--0--0--1-2-5-2-0--0----9-8-6-5-------|
G|--0--0----------0--0------------9-8-9-|


            PM PM PM PM                  
    S S S S S  S  S  S  S S S S S S S S  
D|--------------------------------------|
A|--------------------------------------|
F|--------------------------------------|
C|--------7-----------------------------|
G|------8-----------------------------8-|
D|--8-9-----0--0--0--0--------5-6-8-9---|
G|----------0--0--0--0--9-8-9-----------|


    PM PM PM     PM              PM PM PM PM  
    S  S  S  S S S  S S  S S S S S  S  S  S   
D|-------------------------------------------|
A|-------------------------------------------|
F|-------------------------------------------|
C|--------------------7-10-7-----------------|
G|-----------9-8----9--------8-9-------------|
D|--0--0--0------0---------------0--0--0--0--|
G|--0--0--0------0---------------0--0--0--0--|


                            PM PM PM PM  
    S S S S S S S S S S S S S  S  S  S   
D|--------------------------------------|
A|--------------------------------------|
F|--------------------------------------|
C|--------------------------------------|
G|--------------4-8-7-4-----------------|
D|--------5-6-8---------8-5-0--0--0--0--|
G|--9-8-9-------------------0--0--0--0--|


    PM PM         PM PM                       
    S  S  S S S S S  S  S  S  S S S  S  S  S  
D|-------------------------------------------|
A|-------------------------------------------|
F|-------------------------------------------|
C|-------------------------------------------|
G|----------------------9--------------------|
D|--0--0--5-6-8-6-0--0----12-11-9-8----------|
G|--0--0----------0--0--------------13-12-13-|


                PM PM PM PM                        
     S  S  S  S S  S  S  S   S  S  S S S  S  S  S  
D|------------------------------------------------|
A|------------------------------------------------|
F|------------------------------------------------|
C|-----------10-----------------------------------|
G|--------12-----------------------------------12-|
D|--11-12-------0--0--0--0-----------8-9-11-12----|
G|--------------0--0--0--0--13-12-13--------------|


    PM PM PM       PM                   PM PM PM PM  
    S  S  S   S  S S   S  S  S  S  S  S S  S  S  S   
D|--------------------------------------------------|
A|--------------------------------------------------|
F|--------------------------------------------------|
C|-----------------------10-13-10-------------------|
G|-----------13-12----13----------12-13-------------|
D|--0--0--0--------0--------------------0--0--0--0--|
G|--0--0--0--------0--------------------0--0--0--0--|


                                  PM PM PM PM        
     S  S  S S S  S S  S S S  S S S  S  S  S      
D|--------------------------------------------|
A|--------------------------------------------|
F|--------------------------------------------|
C|--------------------------------------------|
G|------------------7-12-9-7------------------|
D|-----------8-9-11----------11-8-0--0--0--0--|
G|--13-12-13----------------------0--0--0--0--|


Both guitars::


    PM PM      PM PM           
    S  S  Q    S  S  H         
D|----------------------------|
A|----------------------------|
F|----------------------------|
C|----------------------------|
G|----------------------------|
D|--0--0-------0--0-----------|
G|--0--0-------0--0-----------|


         PM PM PM PM             PM PM PM             PM PM PM PM  
    Q    S  S  S  S  H           S  S  S  E  Q    E.  S  S  S  S   
D|----------------------------|-----------------------------------|
A|----------------------------|-----------------------------------|
F|----------------------------|-----------------------------------|
C|----------------------------|-----------------------------------|
G|----------------------------|-----------------------------------|
D|-------0--0--0--0-----------|--0--0--0-----0--------0--0--0--0--|
G|-------0--0--0--0-----------|--0--0--0-----0--------0--0--0--0--|


                 PM PM PM PM             PM PM           
    H.           S  S  S  S     S S Q    S  S  H         
D|---------------------------|--------------------------|
A|---------------------------|--------------------------|
F|---------------------------|--------------------------|
C|---------------------------|--------------------------|
G|---------------------------|--------------------------|
D|---------------0--0--0--0--|-----------0--0-----------|
G|---------------0--0--0--0--|-----------0--0-----------|


         PM PM PM PM             PM PM PM    PM        PM PM PM PM  
    Q    S  S  S  S  H           S  S  S  E  S  Q.     S  S  S  S   
D|----------------------------|------------------------------------|
A|----------------------------|------------------------------------|
F|----------------------------|------------------------------------|
C|----------------------------|------------------------------------|
G|----------------------------|------------------------------------|
D|-------0--0--0--0-----------|--0--0--0-----0---------0--0--0--0--|
G|-------0--0--0--0-----------|--0--0--0-----0---------0--0--0--0--|


                 PM PM PM PM         
    H.           S  S  S  S           
D|---------------------------|
A|---------------------------|
F|---------------------------|
C|---------------------------|
G|---------------------------|
D|---------------0--0--0--0--|
G|---------------0--0--0--0--|


[Final Chorus]

Rhythm::


    PM PM      PM PM           
    S  S  Q    S  S  H         
D|----------------------------|
A|----------------------------|
F|----------------------------|
C|----------------------------|
G|----------------------------|
D|--0--0-------0--0-----------|
G|--0--0-------0--0-----------|


         PM PM PM PM             PM PM PM             PM PM PM PM  
    Q    S  S  S  S  H           S  S  S  E  Q    E.  S  S  S  S   
D|----------------------------|-----------------------------------|
A|----------------------------|-----------------------------------|
F|----------------------------|-----------------------------------|
C|----------------------------|-----------------------------------|
G|----------------------------|-----------------------------------|
D|-------0--0--0--0-----------|--0--0--0-----0--------0--0--0--0--|
G|-------0--0--0--0-----------|--0--0--0-----0--------0--0--0--0--|


                 PM PM PM PM    PM PM      PM PM           
    H.           S  S  S  S     S  S  Q    S  S  H         
D|---------------------------|----------------------------|
A|---------------------------|----------------------------|
F|---------------------------|----------------------------|
C|---------------------------|----------------------------|
G|---------------------------|----------------------------|
D|---------------0--0--0--0--|--0--0-------0--0-----------|
G|---------------0--0--0--0--|--0--0-------0--0-----------|


         PM PM PM PM             PM PM PM             PM PM PM PM  
    Q    S  S  S  S  H           S  S  S  E  Q    E.  S  S  S  S   
D|----------------------------|-----------------------------------|
A|----------------------------|-----------------------------------|
F|----------------------------|-----------------------------------|
C|----------------------------|-----------------------------------|
G|----------------------------|-----------------------------------|
D|-------0--0--0--0-----------|--0--0--0-----0--------0--0--0--0--|
G|-------0--0--0--0-----------|--0--0--0-----0--------0--0--0--0--|


                 PM PM PM PM         
    H.           S  S  S  S          
D|---------------------------|
A|---------------------------|
F|---------------------------|
C|---------------------------|
G|---------------------------|
D|---------------0--0--0--0--|
G|---------------0--0--0--0--|


Lead::


     E  E  E  E  E  E  E  E     E  E  E  E  E  E  E  E   
D||--------------------------|--------------------------|
A||--------------------------|--------------------------|
F||--3-----3-----5-----5-----|--6-----6-----8-----8-----|
C||-----7-----7-----8-----8--|-----8-----8-----7-----7--|
G||--------------------------|--------------------------|
D||--------------------------|--------------------------|
G||--------------------------|--------------------------|


    E  E   E  E   E  E  E  E      E   E   E   E   E   E   E   E                   
D|----------------------------|----------------------------------|
A|------------7---------------|--------------11------------------|
F|--------10-----10-----------|----------14------14--------------|
C|-----7----------------7-----|------10------------------10------|
G|--9----------------9-----9--|--12------------------12------12--|
D|----------------------------|----------------------------------|
G|----------------------------|----------------------------------|


[Outro]

    PM PM      PM PM           
    S  S  Q    S  S  H         
D|----------------------------|
A|----------------------------|
F|----------------------------|
C|----------------------------|
G|----------------------------|
D|--0--0-------0--0-----------|
G|--0--0-------0--0-----------|


         PM PM PM PM             PM PM PM             PM PM PM PM  
    Q    S  S  S  S  H           S  S  S  E  Q    E.  S  S  S  S   
D|----------------------------|-----------------------------------|
A|----------------------------|-----------------------------------|
F|----------------------------|-----------------------------------|
C|----------------------------|-----------------------------------|
G|----------------------------|-----------------------------------|
D|-------0--0--0--0-----------|--0--0--0-----0--------0--0--0--0--|
G|-------0--0--0--0-----------|--0--0--0-----0--------0--0--0--0--|


                 PM PM PM PM   
    H.           S  S  S  S    
D|---------------------------||
A|---------------------------||
F|---------------------------||
C|---------------------------||
G|---------------------------||
D|---------------0--0--0--0--||
G|---------------0--0--0--0--||





************************************

| x  Dead note
W - whole
H - half
Q - quarter
E - 8th
S - 16th
T - 32nd
X - 64th
. - note dotted
|-n-|  - n-tuplets

************************************

            
            
Suggest correction
Creating personal tab
Creating personal tab
You can edit any tab online and save it as your Personal.

You can edit, replace or remove any tab part or add personal notes – all changes will be seen only by you.

Personal tabs can be accessed anytime from any device, even offline.
Learn more »
Give kudos to tab author, rate the tab!
1 2 3 4 5
comments
print report bad tab
guest
You may want to rate the tab now too:
select rating
Wanna post a correction for this tab? Suggest correction