Oops, an error
Loading. Please wait.
We have an official The Human Condition tab made by UG professional guitarists. Check out the tab »
×
3,890 views 1 this week
no commentswrite comment
1 2 3 4 5
2 more votes to show rating
add to favorites
×
Save as Personal and add changes to this tab that will be seen only by you. Learn more ›
×
You can save this tab as Personal to edit and correct it or add notes. All changes will be seen only by you. Learn more »
launch autoscroll
font size
0
reset
guitar tuner
edit
Autoscroll
slow
fast
+/-
esc
set tempo
stop
Chelsea grin-the human condition

5 string tuning:A,E,A,D,G

tabbed by ear,fairly easy to play.
awsome song!

D|---------------------------------------------------------------------------|
A|---------------------------------------------------------------------------|
E|---------------------------------------------------------------------------|
A|0--0-0-0-0-0-0-0-0--0-0-0-0-0-0-0------------------------------------------|

(super fast chugging,listen for exact rythem)
D|---------------------------------------------------------------------------|
A|---------------------------------------------------------------------------|
E|---------------------------------------------------------------------------|
A|0000000-0000-0000-0000000-0000-0000-0000000-0000-0000-0000000-0000-0000----|


D|---------------------------------------------------------------------------|
A|---------------------------------------------------------------------------|
E|---------------------------------------------------------------------------|
A|0000000-0-0-0-0-0-0000-0-0000-0-0000000-0-0-0-0-0-0000-0-0000-0------------|

D|-----------------------------------------------------------------------------|
A|-----------------------------------------------------------------------------|
E|-----------------------------------------------------------------------------|
A|0000000-0000-0000-0000000-0000-0000-0-0-0-0-0-0-0-0-0-0-0-0-0-0-0-0-0-0-0----|
(steady open note rythem continues,listen for how many times they are played this way)

D|-----------------------------------------------------------------------------------------|
A|-----------------------------------------------------------------------------------------|
E|-----------------------------------------------------------------------------------------|
A|0000-0000-000-00000-00-000-00000-00-000-00000-00-000-00000-00-000-00000-00-000-00000-00--|

D|---------------------------------|
A|---------------------------------|
E|---------------------------------|
A|1-0000-1-0000-1-000000000000-|6--|x (the last few notes are not played every time,listen for it)

D|-----------------------------------------------------------------------------|
A|-----------------------------------------------------------------------------|
E|-----------------------------------------------------------------------------|
A|000-000-000-000-00000000-----------------------------------------------------|4x

D|-------------------------------------------------------------------------------------------|
A|-------------------------------------------------------------------------------------------|
E|-------------------------------------------------------------------------------------------|
A|00000-0-000-00000-00000-0-00000000-0-0-00000-00000-0-000-00000-00000-0-00000000-0-0-00000--|

"don't just say what you're supposed to say.."
D|-----------------------------------------------------------------------------|
A|-----------------------------------------------------------------------------|
E|-----------------------------------------------------------------------------|
A|00000-0-000-0000-------------------------------------------------------------|4x

D|------------------------------------------------------------------------------|
A|------------------------------------------------------------------------------|
E|--------------------0---------------------------------------------------------|
A|1-2-1-2-1-2-1-2-1-2---4-3-1-3-------------------------------------------------|4x

enjoy :)

            
            
Suggest correction
Creating personal tab
Creating personal tab
You can edit any tab online and save it as your Personal.

You can edit, replace or remove any tab part or add personal notes – all changes will be seen only by you.

Personal tabs can be accessed anytime from any device, even offline.
Learn more »
Give kudos to tab author, rate the tab!
1 2 3 4 5
comments
print report bad tab
guest
You may want to rate the tab now too:
select rating
Wanna post a correction for this tab? Suggest correction