Oops, an error
Loading. Please wait.

The Human Condition Tab

version 1
version 1

Intro

Whole song

Interactive

36,440 views 39 this week
1 commentread comment
1 2 3 4 5
excellent!
x 8
add to favorites
launch autoscroll
font size
0
reset
how to read this tab
guitar tuner
Tab Pro tools
  • play this tab
  • loop segment
  • change instrument
  • show fretboard
  • metronome
Autoscroll
slow
fast
+/-
esc
set tempo
stop
Contributor
AIntro to:

The Human Condition-Chelsea Grin

Tabbed by Jaredh_d2012


Update 1: Fixed some stray notes and added a part about tuning. Should sound more 
like the actual song.


Tuning: AEADGBE or EADGBE Chelsea Grin uses seven strings in drop A, but they 
never go below the D string on this arpeggio so you can play it on a standard tuned six string.

Into Pt. 1.(Slow intro)

E|8-5-----------5-8-5---------5----7-4----------4-7-4----------4-|
B|----5-------5-------5------5-----------------------------------|
G|------5---5-----------5---5----------7-4---7-4-----7-4---4-7---|
D|--------7---------------7----------------6-------------6-------|
A|---------------------------------------------------------------|
E|---------------------------------------------------------------|
A|---------------------------------------------------------------|


E|8-5-----------5-8-5---------5-----10-7------------10-7-10------------|
B|----5-------5-------5------5-----------------------------------------|
G|------5---5-----------5---5-----------10-7---10-7--------10-7--------|
D|--------7---------------7------------------9------------------9~~~~~~|
A|---------------------------------------------------------------------|
E|---------------------------------------------------------------------|
A|---------------------------------------------------------------------|
 |Harmony
E|8-5-----------5-8-5---------8-5----4-7-------------4--7--4-----------|
B|----5-------5-------5------5-----------------------------------------|
G|------5---5-----------5---5------------4--7---7--4--------4--7-------|
D|--------7---------------7-------------------6-----------------6-~~~~~|
A|---------------------------------------------------------------------|
E|---------------------------------------------------------------------|
A|---------------------------------------------------------------------|



Intro Pt. 2. (The Faster part) Repeat this entire section twice.

E|85-----5--85-5----85-----585-----5-7p4-------4---7p4-4----7p4-------4h7p4-------4---|
B|--5---5-5---5-5-----5---5---5---5---------------------------------------------------|
G|---5-5---5-----5-----5-5-----5-5------7p4-4h7-7p4---7-7p4----7p4-4h7-----7p4-4h7----|
D|----7-----------------7-------7----------6----------------------6-----------6-------|
A|------------------------------------------------------------------------------------|
E|------------------------------------------------------------------------------------|
A|------------------------------------------------------------------------------------|


E|85-----5--85-5----85-----585-----5-10p7---------7----10p7--7----7p4----------7h10p7---------7|
B|--5---5-5---5-5-----5---5---5---5------------------------------------------------------------|
G|---5-5---5-----5-----5-5-----5-5-------10p7-7h10-10p7----10-10p7----10p7-7h10------10p7-7h10-|
D|----7-----------------7-------7------------9----------------------------9--------------9-----|
A|---------------------------------------------------------------------------------------------|
E|---------------------------------------------------------------------------------------------|
comments
print report bad tab
1 comment total.
+3 reply
deadloque wrote on July 12 2010, 12:34 am

just to let you know its 7-4 then 4-7 not the other way around

I want to post or [tab]
guest
You may want to rate the tab now too:
select rating
Please do not post tabs as comments. Select "correction" instead!