Oops, an error
Loading. Please wait.

Boyfriend tab

version 1
version 1

Whole song

Interactive

4,153 views 21 this week
2 commentsread comments
1 2 3 4 5
1 last vote to show rating
add to favorites
×
Save as Personal and add changes to this tab that will be seen only by you. Learn more ›
×
You can save this tab as Personal to edit and correct it or add notes. All changes will be seen only by you. Learn more »
launch autoscroll
font size
0
reset
how to read this tab
guitar tuner
edit
Autoscroll
slow
fast
+/-
esc
set tempo
stop
Author
Difficulty
Artist: Chelsea Wolfe
Album: Unknown Rooms: A Collection of Acoustic Songs
Song: "Boyfriend"

Tuning: Standard (Which is uncommon for Chelsea...)



Main riff
e|-----------------------------------------------------------------|
B|-----------------------------------------------------------------|
G|---------0-------------------------------------------------------|
D|--------------------2p0----------------0-------------------------|
A|----------------3------------------------------2-----------------|
E|----0------------------------------3--------2----0---------------|



Pre-chorus
e|-----------------------------------------------------------------|
B|------1~-----------0--0--0--------0------------------------------|
G|------0~-----------0--2--4--------0------------------------------|
D|------2~-----------------------------------2~--------------------|
A|-------------------------------------------2~--------------------|
E|-------------------------------------------0~--------------------|



(The guitar kinda plays this over the synth part..)
e|-----------------------------------------------------------------|
B|-----------------------------------------------------------------|
G|-----------------------------------------------------------------|
D|------2----------------------------------------------------------|
A|------------2-------2--------------------------------------------|
E|----------------------------2------------------------------------|

(...but the entire synth part fills in as:)
e|-----------------------------------------------------------------|
B|-----------------------------------------------------------------|
G|--------------------0--------------------------------------------|
D|-----2---0---2-----------------4-------4-------------------------|
A|---------------2-----------2-------------------------------------|
E|---------------------------------3-2-----------------------------|
Suggest correction
Creating personal tab
Creating personal tab
You can edit any tab online and save it as your Personal.

You can edit, replace or remove any tab part or add personal notes – all changes will be seen only by you.

Personal tabs can be accessed anytime from any device, even offline.
Learn more »
Give kudos to tab author, rate the tab!
1 2 3 4 5
comments
print report bad tab
2 comments total.
0 reply
SOF187 497 Jul 25, 2013 10:19 PM

Main riff and synth are correct, everything else is wrong. I uploaded a GP file of it played how Chelsea plays it.

+1 reply
clairWOWe 10 Sep 13, 2013 11:02 PM

for the pre chorus i think the end is different:
e|-----------------------------------------------------------------|
B|------1~-----------0--0--0--------0------------------------------|
G|------0~-----------0--2--4--------0------------------------------|
D|------2~-----------------------------------2~--------------------|
A|-------------------------------------------3~--------------------|
E|-------------------------------------------0~--------------------|

guest
You may want to rate the tab now too:
select rating
Wanna post a correction for this tab? Suggest correction