Oops, an error
Loading. Please wait.

Flatlands Tab

version 2
version 2

Whole song

8,075 views 39 this week
5 commentsread comments
1 2 3 4 5
x 10
add to favorites
launch autoscroll
font size
0
reset
how to read this tab
guitar tuner
×
Best way to learn
"Flatlands"
Autoscroll
slow
fast
+/-
esc
set tempo
stop
Key: Bb

[Intro] (00:00)
    Bb                Gm
e|------------------------------------|
B|------------------------------------|
G|------------------------------------|
D|--------3--------3--(5)----5b--3----|
A|-----5--------5---------5-----------|
E|--6--------6---------3--------------|

[Verse] (00:25)
    Bb                Gm
e|------------------------------------|
B|------------------------------------|
G|------------------------------------|
D|--------3--------3--(5)----5b--3----|
A|-----5--------5---------5-----------|
E|--6--------6---------3--------------|

I want flatlands                             
I never cared about money and all its friends  
I want flatlands                              

    Bb               
e|---------------------------------------|
B|---------------------------------------|
G|---------------------------------------|
D|--------8--------7---------5--------3--|
A|-----5--------5---------5--------5-----|
E|--6--------6---------3--------3--------|

    Bb                Gm
e|------------------------------------|
B|------------------------------------|
G|------------------------------------|
D|--------3--------3--(5)----5b--3----|
A|-----5--------5---------5-----------|
E|--6--------6---------3--------------|

I want flatlands
I don't want precious stones
I never cared about anything you've ever owned
I want flatlands
I want simplicity
I need your arms wrapped hard around me
I want open plains and scattered trees
I want flower fields
I want salty seas
I want flatlands soft and steady breeze
bringing scents of lined-up orchard trees
dripping heavy with pears and dancing leaves
I want flatlands
will you go there with me
when it's said in the dark and you know it's always there
when it's dead in our heart but your mind is unafraid
when it's said in the dark and you know it's never coming back
when it's there in your heart in your mind you set it free



***********************************

| (n)  Ghost note
| b    Bend

************************************
Suggest correction
comments
print report bad tab
5 comments total. Showing first comments.
0 reply
Saitenstechen 283 Jan 06, 2013 11:51 AM

Everytime it says Ab actually it is a Bb. Sorry about that.

0 reply
0ester 52 Dec 04, 2013 01:04 PM

I'll give you 5 stars, simply because I arrived at excactly the same thing on my own when I was looking at the other tab and correcting it by myself. The interlude could have been included though.

+3 reply
spinyhedgepig 66 Mar 19, 2014 10:09 AM

Heyo! Nice tab! Spot on. As I was playing I found the reach of the first fingering to be a little long. Slapped a capo on the 3rd fret. Whole song just got way easier.

guest
You may want to rate the tab now too:
select rating
Wanna post a correction for this tab? Suggest correction