Oops, an error
Loading. Please wait.

Hypnos tab

1,381 views 27 this week
no commentswrite comment
1 2 3 4 5
2 more votes to show rating
add to favorites
×
Save as Personal and add changes to this tab that will be seen only by you. Learn more ›
×
You can save this tab as Personal to edit and correct it or add notes. All changes will be seen only by you. Learn more »
launch autoscroll
font size
0
reset
how to read this tab
guitar tuner
edit
Autoscroll
slow
fast
+/-
esc
set tempo
stop
Hypnos by Chelsea Wolfe

Tuning: DBDF#F#D

Very unusual tuning on this, and mostly playing open strings. The first three notes in the chorus
are only played once at the beginning of each chorus as it transitions from the verse; after that, the
strumming pattern which follows is repeated.


Intro/Verse:

e|------------------------------------------|
B|---------------0------------------0-------|
G|---0--------------------0-----------------|
D|------------------------------------------|
A|-----------0--------------------0---------|
E|-4----4-5----------5-4-----4-5------------|


Chorus:

e|------------------------------------------------------------------|
B|------------------------------------------------------------------|
G|----------0---0---0-----0---0---0---0---0---0---0-----0---0---0---|
D|------------0---0---------0---0---0-------0---0---------0---0-----|
A|-----0----------------0-----------------------------0-------------|
E|-4-5----0-----------5-----------------0-----------5-------------0-|


Lyrics:

I awoke in a dream
An evil one
A setting sun
I licked your hatred
You set me free
In summer
In the boiling blood

Oh baby, I'll carry your disease
That darkness that lives inside you deep
Oh honey, I'll put up a fight with death
He's never coming near my love again

I see it there
Rows and rows
Mouths of fjords
I swim in them in my dreams

Oh baby, I'll carry your disease
That darkness that lives inside you deep
Oh honey, I'll put up a fight with death
He's never coming near my love again
He's never coming near my love again
He's never coming near my love again

            
            
Suggest correction
Creating personal tab
Creating personal tab
You can edit any tab online and save it as your Personal.

You can edit, replace or remove any tab part or add personal notes – all changes will be seen only by you.

Personal tabs can be accessed anytime from any device, even offline.
Learn more »
Give kudos to tab author, rate the tab!
1 2 3 4 5
comments
print report bad tab
guest
You may want to rate the tab now too:
select rating
Wanna post a correction for this tab? Suggest correction