Oops, an error
Loading. Please wait.

Mer tab

version 2
version 2

Whole song

526 views 3 this week
no commentswrite comment
1 2 3 4 5
1 last vote to show rating
add to favorites
×
Save as Personal and add changes to this tab that will be seen only by you. Learn more ›
×
You can save this tab as Personal to edit and correct it or add notes. All changes will be seen only by you. Learn more »
launch autoscroll
font size
0
reset
how to read this tab
guitar tuner
edit
Autoscroll
slow
fast
+/-
esc
set tempo
stop
-------------------------------------------------------------------------------
                           MER - Chelsea Wolfe
-------------------------------------------------------------------------------
Tabbed by: TOMMYGULLY2012

Throughout the song, there are many layers of guitar on top of each other, so
I’ve tabbed the most prominent layer or combined them in each part of the song
to make this tab playable on one guitar. It might not be 100%, but I’m certain
it is more accurate than the other tabs for this song on the site.

Tuning: D Standard - (DGCFAd)

Intro                               (* = explained at bottom of tab)
d|---------------------------------------------------------------------------|
A|---------*------------------------------*----------------------------------|
F|--------8b9r8------------8-------------4b5r4------------4------------------|
C|------6----------------6-----6-------2----------------2---2----------------|
G|----6---(b7r6)-------6-------------2---(b3r2)-------2------(2)/------------|
D|--7-----(b8r6)-----7-------------3-----(b4r3)-----3------------------------|

d|---------------------------------------------------------------------------|
A|---------*------------------------------*----------------------------------|
F|--------8b9r8------------8-------------4b5r4------------4------------------|
C|------6----------------6-----6-------2----------------2---2----------------|
G|----6---(b7r6)-------6-------------2---(b3r2)-------2-------2--------------|
D|--7-----(b8r6)-----7-------------3-----(b4r3)-----3------------------------|

(Band enters.)
d|---------------------------------------------------------------------------|
A|---------------------------------------------------------------------------|
F|---------------------------------------------------------------------------|
C|-----1----1----1----1----1----1----1----0----------------------------------|
G|---0----0----0----0----0----0----0----0------------------------------------|
D|-2----2----2----2----2----2----2----1--------------------------------------|

Verse 1
d|---------------------------------------------------------------------------|
A|---------------------------------------------------------------------------|
F|---------------------------------------------------------------------------|
C|-----1----1----1----1----0----0----0----0----------------------------------|
G|---0----0----0----0----0----0----0----0-----------------------------(x2)---|
D|-2----2----2----2----1----1----1----1--------------------------------------|

d|---------------------------------------------------------------------------|
A|---------------------------------------------------------------------------|
F|---------------------------------------------------------------------------|
C|-----1----1----1----1----6----6----6----6----------------------------------|
G|---0----0----0----0----6----6----6----6------------------------------------|
D|-2----2----2----2----7----7----7----7--------------------------------------|

d|---------------------------------------------------------------------------|
A|---------------------------------------------------------------------------|
F|---------------------------------------------------------------------------|
C|-----4----4----4----4----0----0----0----0----------------------------------|
G|---4----4----4----4----0----0----0----0------------------------------------|
D|-5----5----5----5----1----1----1----1--------------------------------------|

d|---------------------------------------------------------------------------|
A|---------------------------------------------------------------------------|
F|---------------------------------------------------------------------------|
C|-----1----1----1----1----0----0----0----0----------------------------------|
G|---0----0----0----0----0----0----0----0-----------------------------(x2)---|
D|-2----2----2----2----1----1----1----1--------------------------------------|

d|---------------------------------------------------------------------------|
A|---------------------------------------------------------------------------|
F|---------------------------------------------------------------------------|
C|-----1----1----1----1----1----1----1----0----------------------------------|
G|---0----0----0----0----0----0----0----0------------------------------------|
D|-2----2----2----2----2----2----2----2--------------------------------------|

Chorus
d|---------------------------------------------------------------------------|
A|---------*------------------------------*----------------------------------|
F|--------8b9r8------------8-------------4b5r4------------4------------------|
C|------6----------------6------------2----------------2--------------------|
G|----6---(b7r6)-------6-------6-----2---(b3r2)-------2----------------------|
D|--7-----(b8r6)-----7-------------3-----(b4r3)-----3--------3/--------------|

d|---------------------------------------------------------------------------|
A|---------*------------------------------*----------------------------------|
F|--------8b9r8------------8-------------4b5r4------------4------------------|
C|------6----------------6-----6-------2----------------2--------------------|
G|----6---(b7r6)-------6-------------2---(b3r2)-------2----------------------|
D|--7-----(b8r6)-----7-------------3-----(b4r3)-----3--------3---------------|

d|---------------------------------------------------------------------------|
A|---------------------------------------------------------------------------|
F|---------------------------------------------------------------------------|
C|-----1----1----1----1----1----1----1----0----------------------------------|
G|---0----0----0----0----0----0----0----0------------------------------------|
D|-2----2----2----2----2----2----2----1--------------------------------------|

Altered Verse 2
d|---------------------------------------------------------------------------|
A|---------------------------------------------------------------------------|
F|---------------------------------------------------------------------------|
C|-----1----1----1----1----0----0----0----0----------------------------------|
G|---0----0----0----0----0----0----0----0-----------------------------(x4)---|
D|-2----2----2----2----1----1----1----1--------------------------------------|

d|---------------------------------------------------------------------------|
A|---------------------------------------------------------------------------|
F|---------------------------------------------------------------------------|
C|-----6----6----6----6----4----4----4----4----------------------------------|
G|---6----6----6----6----4----4----4----4------------------------------------|
D|-7----7----7----7----5----5----5----5--------------------------------------|

d|---------------------------------------------------------------------------|
A|---------------------------------------------------------------------------|
F|---------------------------------------------------------------------------|
C|-----0----0----0----0----1----1----1----0----------------------------------|
G|---0----0----0----0----0----0----0----0------------------------------------|
D|-1----1----1----1----2----2----2----2--------------------------------------|

d|---------------------------------------------------------------------------|
A|---------------------------------------------------------------------------|
F|---------------------------------------------------------------------------|
C|-----4----4----4----4----0----0----0----0----------------------------------|
G|---4----4----4----4----0----0----0----0------------------------------------|
D|-5----5----5----5----1----1----1----1--------------------------------------|

d|---------------------------------------------------------------------------|
A|---------------------------------------------------------------------------|
F|---------------------------------------------------------------------------|
C|-----1----1----1----0----6----6----6----6----------------------------------|
G|---0----0----0----0----6----6----6----6------------------------------------|
D|-2----2----2----2----7----7----7----7--------------------------------------|

d|---------------------------------------------------------------------------|
A|---------------------------------------------------------------------------|
F|---------------------------------------------------------------------------|
C|-----4----4----4----4----0----0----0----0----------------------------------|
G|---4----4----4----4----0----0----0----0------------------------------------|
D|-5----5----5----5----1----1----1----1--------------------------------------|

d|---------------------------------------------------------------------------|
A|---------------------------------------------------------------------------|
F|---------------------------------------------------------------------------|
C|-----1----1----1----1----0----0----0----0----0----0----0----0--------------|
G|---0----0----0----0----0----0----0----0----0----0----0----0----------------|
D|-2----2----2----2----1----1----1----1----1----1----1----1------------------|

d|---------------------------------------------------------------------------|
A|---------------------------------------------------------------------------|
F|---------------------------------------------------------------------------|
C|-----1----1----1----1----1----1----1----0----------------------------------|
G|---0----0----0----0----0----0----0----0------------------------------------|
D|-2----2----2----2----2----2----2----2--------------------------------------|

Chorus
d|---------------------------------------------------------------------------|
A|---------*------------------------------*----------------------------------|
F|--------8b9r8------------8-------------4b5r4------------4------------------|
C|------6----------------6-------------2----------------2--------------------|
G|----6---(b7r6)-------6-------------2---(b3r2)-------2----------------------|
D|--7-----(b8r6)-----7--------7\---3-----(b4r3)-----3--------3/--------------|

d|---------------------------------------------------------------------------|
A|---------*------------------------------*----------------------------------|
F|--------8b9r8------------8-------------4b5r4------------4------------------|
C|------6----------------6-------------2----------------2--------------------|
G|----6---(b7r6)-------6-------6-----2---(b3r2)-------2----------------------|
D|--7-----(b8r6)-----7-------------3-----(b4r3)-----3--------3/--------------|

(this next part is played on top of the previous riff)
d|------------*---------------------------------*----------------------------|
A|----------16b17r16------------16------------12b13r12----------12-----------|
F|-------13------------------13-------------9-----------------9--------------|
C|----13-----(b14r13)-----13--------------9----(b10r9)------9----------------|
G|-14--------(b15r14)--14---------14\--10------(b11r10)--10--------10/-------|
D|---------------------------------------------------------------------------|

d|------------*---------------------------------*----------------------------|
A|----------16b17r16------------16------------12b13r12----------12-----------|
F|-------13------------------13-------------9-----------------9----9---------|
C|----13-----(b14r13)-----13--------------9----(b10r9)------9----------------|
G|-14--------(b15r14)--14---------14\--10------(b11r10)--10----------10/-----|
D|---------------------------------------------------------------------------|

Outro
d|---------------------------------------------------------------------------|
A|---------------------------------------------------------------------------|
F|---------------------------------------------------------------------------|
C|----13-------13-------13-------13------13-------13-------13-------13-------|
G|-14----13-14----13-14----13-14----13-14---13-14----13-14----13-14----13----|
D|---------------------------------------------------------------------------|

d|---------------------------------------------------------------------------|
A|---------------------------------------------------------------------------|
F|-------15b16----15-------13-------15------15b16----15------13--------------|
C|----13-------13-------13-------13------13-------13------13---13------------|
G|-14----------------14-------14------14---------------14------14------------|
D|---------------------------------------------------------------------------|

    These bend parts are played with the barre chord, so your whole fretting
* = hand bends all the strings in the chord. I’ve only put brackets for the
    bends on the lower two strings in the chord as those are the least audible.


************************************

| /   slide up
| \   slide down
| h   hammer-on
| p   pull-off
| ~   vibrato
| +   harmonic
| x   Mute note
| b   Bend
| pb  Pre-bend
| br  Bend release
| pbr Pre-bend release
| brb Bend release bend

************************************

            
            
Suggest correction
Creating personal tab
Creating personal tab
You can edit any tab online and save it as your Personal.

You can edit, replace or remove any tab part or add personal notes – all changes will be seen only by you.

Personal tabs can be accessed anytime from any device, even offline.
Learn more »
Give kudos to tab author, rate the tab!
1 2 3 4 5
comments
print report bad tab
guest
You may want to rate the tab now too:
select rating
Wanna post a correction for this tab? Suggest correction