Oops, an error
Loading. Please wait.

Moses Tab

version 2
version 2

Whole song

  • Has appropriate string bends and includes chorus.
37 views 3 this week
no commentswrite comment
1 2 3 4 5
2 more votes to show rating
add to favorites
launch autoscroll
font size
0
reset
how to read this tab
guitar tuner
Autoscroll
slow
fast
+/-
esc
set tempo
stop
Help us to improve Ultimate-Guitar.com Take our survey!
×
Author
Difficulty
Capo
novice
2nd fret
About this tab version
Has appropriate string bends and includes chorus. Was this info helpful? Yes No
Chelsea Wolfe – Moses

Tuning: EADGBE

Capo on 2nd fret


Intro/Verse

e|----------------------------------------------|
B|----------------------------------------------|
G|----------------------------------------------|
D|----------------------------------------------|
A|--3b-3b----------------3b-3b------------------|
E|--------0--3--5-5-5-5--------0--3--5-5-5-5----|

    Moses
    Can you carry
    Heavy
    Cause I can't
    Take it
    Can't hold on
    Much longer



Chorus

e|--------0------------|
B|------1-0------------|
G|------0-0------------|
D|--2---2-0--7-7-7-7---|
A|--3b--3-0--7-7-7-7---|
E|-----------5-5-5-5---|


    Can you
    Guide me
    Cause you're so strong
    Cause I can't see nothing at all
    Cause my eyes are burning like the sun
    Burning like the sun
    Burning like the sun


****************
b = string bend
****************
Suggest correction
Give kudos to tab author, rate the tab!
1 2 3 4 5
comments
print report bad tab
guest
You may want to rate the tab now too:
select rating
Wanna post a correction for this tab? Suggest correction