Oops, an error
Loading. Please wait.

Noorus Tab

49 views 1 this week
no commentswrite comment
1 2 3 4 5
3 more votes to show rating
add to favorites
launch autoscroll
font size
0
reset
how to read this tab
guitar tuner
Autoscroll
slow
fast
+/-
esc
set tempo
stop
Help us to improve Ultimate-Guitar.com Take our survey!
×
Author
Difficulty
Tuning
intermediate
D A D F# A D
About this tab version
Includes intro and verse tablature, as well as portions for bridge and refrain. Was this info helpful? Yes No
Chelsea Wolfe – Noorus


Tuning: DGCFAD


Intro/Verse:

e|-----------------------------------|
B|-----------------------------------|
G|-----------------------------------|
D|--2-----2-2-----2-2-----------2----|
A|--2-----2-2-----2-2-----------2----|
E|--0-3-3-0-0-3-3-0-0-3-5-5-3-3-0-0--|


    I was young
    I was scared
    I was so high I didn't care
    Ooh, oh

    Mind was loose
    Mind was dead
    Mind was jaded like quarter-fed
    Ooh, oh

    I was a boy
    I was whore
    I would take in anything you'd give
    Ooh, oh, ooh, oh, whoa, oh, oh ,oh


Bridge:

e|--------------------------------|
B|--------------------------------|
G|--7-7-7-7-7-7--5-5-5-5-5-5------|
D|--7-7-7-7-7-7--5-5-5-5-5-5------|
A|--5-5-5-5-5-5--3-3-3-3-3-3------|
E|--------------------------------|


(Resume verse)

    Only cared
    About myself
    Fuck you and your ego
    Get out of my brain
    Ooh, oh, ooh, oh, whoa, oh, oh ,oh


Refrain:

e|----------------------|
B|----------------------|
G|--6-6----4-4----3-3---|
D|--7-7----5-5----4-4---|
A|--7-7----5-5----4-4---|
E|--5-5----3-3----2-2---|

    It was a war
    It was obscene
    It was the worst that I had been
    It was a bag of chocolate coins  


(Resume verse)
     Ooh, oh, ooh, oh, ooh, oh
     Whoa, oh, oh, oh, ooh, oh
     Ooh, oh, ooh, oh, ooh, oh
     Whoa, oh, oh, oh, ooh, oh
Suggest correction
Give kudos to tab author, rate the tab!
1 2 3 4 5
comments
print report bad tab
guest
You may want to rate the tab now too:
select rating
Wanna post a correction for this tab? Suggest correction