Oops, an error
Loading. Please wait.

Song For Her Tab

714 views 3 this week
no commentswrite comment
1 2 3 4 5
accurate
x 2
add to favorites
launch autoscroll
font size
0
reset
how to read this tab
guitar tuner
Tab Pro tools
  • play this tab
  • loop segment
  • change instrument
  • show fretboard
  • metronome
Autoscroll
slow
fast
+/-
esc
set tempo
stop
Contributor
Song Name: Song For Her
Artist: Chemical Vocation


Edit: Uptaded the tab now ^^





Verse 1:

Awkward feelings make...


    Bm               Em7
E|-------------------0-0-0-0-0-0-0-5-5-5-3-3-3--|
B|--3-3-3-3-3-3-3-3--3-3-3-3-3-3-3-3-3-3-3-3-3--|
G|--4-4-4-4-4-4-4-4--0-0-0-0-0-0-0-0-0-0-0-0-0--|
D|--4-4-4-4-4-4-4-4--0-0-0-0-0-0-0-0-0-0-0-0-0--|
A|--2-2-2-2-2-2-2-2--2-2-2-2-2-2-2-2-2-2-2-2-2--|
E|----------------------------------------------|


     A                     Fm#           F#         
E|---------------------------------------------------|
B|--2-2-2-2-2-2-2-2-2-2-2----------------------------|
G|--2-2-2-2-2-2-2-2-2-2-2--2-2-2-2-2-2--3-3-3-3-3-3--|
D|--2-2-2-2-2-2-2-2-2-2-2--4-4-4-4-4-4--4-4-4-4-4-4--|
A|--0-0-0-0-0-0-0-0-0-0-0--4-4-4-4-4-4--4-4-4-4-4-4--|
E|-------------------------2-2-2-2-2-2--2-2-2-2-2-2--|


Repeat twice


Pre-chorus:

Your way to be the one you are...



    G                    Bm
E|---------------------------------------------|
B|-----------------------3-3-3-3-3-3-3-3-3-3---|
G|--4-4-4-4-4-4-4-4-4-4--4-4-4-4-4-4-4-4-4-4---|
D|--5-5-5-5-5-5-5-5-5-5--4-4-4-4-4-4-4-4-4-4---| x2
A|--5-5-5-5-5-5-5-5-5-5--2-2-2-2-2-2-2-2-2-2---|
E|--3-3-3-3-3-3-3-3-3-3------------------------|


Chrous:

I think I'll freeze this moment...

    Bm                G                A
E|----------------------------------------------|
B|--3-3-3-3-3-3-3-3-----------------------------|
G|--4-4-4-4-4-4-4-4---4-4-4-4-4-4-4-4--6-6-6-6--|
D|--4-4-4-4-4-4-4-4---5-5-5-5-5-5-5-5--7-7-7-7--| x2
A|--2-2-2-2-2-2-2-2---5-5-5-5-5-5-5-5--7-7-7-7--|
E|--------------------3-3-3-3-3-3-3-3--5-5-5-5--|

Who thought that we would be a part of something...

    Bm            G          A          F#
E|-----------------------------------------------------|
B|--3-3-3-3-3-3----------------------------------------|
G|--4-4-4-4-4-4---4-4-4-4-4--6-6-6-6-6--6-6-6-6-6-6-6--|
D|--4-4-4-4-4-4---5-5-5-5-5--7-7-7-7-7--4-4-4-4-4-4-4--|
A|--2-2-2-2-2-2---5-5-5-5-5--7-7-7-7-7--4-4-4-4-4-4-4--|
E|----------------3-3-3-3-3--5-5-5-5-5--2-2-2-2-2-2-2--|

Then repeat verse one time, chorus one time

Violin solo:

    G             Bm        G            Bm
E|----------------------------------------------------|
B|---------------3-3-3-3-3---------------3-3-3-3-3-3--|
G|--4-4-4-4-4-4--4-4-4-4-4--4-4-4-4-4-4--4-4-4-4-4-4--|
D|--5-5-5-5-5-5--4-4-4-4-4--5-5-5-5-5-5--4-4-4-4-4-4--|
A|--5-5-5-5-5-5--2-2-2-2-2--5-5-5-5-5-5--2-2-2-2-2-2--|
E|--3-3-3-3-3-3-------------3-3-3-3-3-3---------------|

    G          Bm         A        G         A
E|---------------------------------------------------|
B|-------------3-3-3-3-3-----------------------------|
G|--4-4-4-4-4--4-4-4-4-4--6-6-6-6--4-4-4-4--6-6-6-6--|
D|--5-5-5-5-5--4-4-4-4-4--7-7-7-7--5-5-5-5--7-7-7-7--|
A|--5-5-5-5-5--2-2-2-2-2--7-7-7-7--5-5-5-5--7-7-7-7--|
E|--3-3-3-3-3-------------5-5-5-5--3-3-3-3--5-5-5-5--|

Verse:

Awkward feelings...
    Bm       G       A     F#m  F#
E|-------------------------------------|
B|--3~---------------------------------|
G|--4~-------4~------6~----------3~----|
D|--4~-------5~------7~-----4~---4~----|
A|--2~-------5~------7~-----4~---4~----|
E|-----------3~------5~-----2~---2~----|

    Bm       G       A      F#m        F#
E|------------------------------------------------|
B|--3~--------------------------------------------|
G|--4~-------4~------6~----------------3-3-3-3-3--|
D|--4~-------5~------7~-----4-4-4-4-4--4-4-4-4-4--|
A|--2~-------5~------7~-----4-4-4-4-4--4-4-4-4-4--|
E|-----------3~------5~-----2-2-2-2-2--2-2-2-2-2--|

Pre-chorus:

Your way to be the one you are...



    G                    Bm
E|---------------------------------------------|
B|-----------------------3-3-3-3-3-3-3-3-3-3---|
G|--4-4-4-4-4-4-4-4-4-4--4-4-4-4-4-4-4-4-4-4---|
D|--5-5-5-5-5-5-5-5-5-5--4-4-4-4-4-4-4-4-4-4---| x4
A|--5-5-5-5-5-5-5-5-5-5--2-2-2-2-2-2-2-2-2-2---|
E|--3-3-3-3-3-3-3-3-3-3------------------------|

End:
    G                       A
E|-------------------------------------|
B|-------------------------------------|
G|--4~----------------------6~---------|
D|--5~----------------------7~---------|
A|--5~----------------------7~---------|
E|--3~----------------------5~---------|





http://www.chemicalvocation.com/
comments
We did not receive enough feedback on this tab! Please rate:
print report bad tab
1 2 3 4 5
I want to post or [tab]
guest
You may want to rate the tab now too:
select rating
Please do not post tabs as comments. Select "correction" instead!