Oops, an error
Loading. Please wait.
We have an official If I Could Turn Back Time tab made by UG professional guitarists. Check out the tab »
×
by Cher
823 views 6 this week
no commentswrite comment
1 2 3 4 5
2 more votes to show rating
add to favorites
×
Save as Personal and add changes to this tab that will be seen only by you. Learn more ›
×
You can save this tab as Personal to edit and correct it or add notes. All changes will be seen only by you. Learn more »
launch autoscroll
font size
0
reset
guitar tuner
backing track
0:00
0:00
edit
Autoscroll
slow
fast
+/-
esc
set tempo
stop
Author
Difficulty
If I Could Turn Back Time
1989 release by Cher reached number 6 in UK. Tab by bass50611
Welcome to my tab, not 100% exact but close enough to the original.
Comments at bass254@btinternet.com 

Intro & Part Chorus:  NO BASS

Verse 1: 
G|---------------------------------------------------------------
D|-----9---------------9---------------9---------------9---------
A|-9-------7---9---9-------7---9---9-------7---9---9-------7---9-
E|---------------------------------------------------------------

Pre-Chorus 1:
G|---------------------------------------------------------------
D|---6-------------------------6-----------------------6---4-/-9-
A|-7----9--9-9-9-9-9-9-9-9---7----9--9-9-9-9-9-9-9-9-------------
E|---------------------------------------------------------------

Chorus 1:
G|-------------------------------------------------------------------
D|-------------------------------------------------------------------
A|-2-2-2-2-2-2-2-2--2-2-2-2-2-2-2-2----------------------------------
E|----------------------------------0-0-0-0-0-0-0-0--0-0-0-0-0-0-0-0-

G|------------------------------------------------------------------
D|------------------------------------------------------------------
A|-4-4-4-4-4-4-4-4--4-4-4-4-4-4-4-4-----------------2-2-2-2-2-2-2-2-
E|----------------------------------2-2-2-2-2-2-2-2-----------------

G|-----------------------------------------------------------------
D|-----------------------------------------------------------------
A|-2-2-2-2-2-2-2-2-------------------------------------------------
E|-----------------0-0-0-0-0-0-0-0--0-0-0-0-0-0-0--9-9-9-9-9-9-9-9-

G|---------------------------
D|-------------------9-------
A|-----------------9---7-9-\-
E|-9-9-9-9-9-9-9-9-----------

Verse 2:
G|---------------------------------------------------------------
D|---------------------------------------------------------------
A|---2---------2---------2------9-9-9-9-9-9-9-9--9-9-9-9-9-9-9-9-
E|-2---0-2---2---0-2---2---0-2/----------------------------------

Pre-Chorus 2:                                          .    .
G|------------------------------------------------------------
D|---6-------------------------6-----------------------6----4-
A|-7----9--9-9-9-9-9-9-9-9---7----9--9-9-9-9-9-9-9-9----------
E|------------------------------------------------------------

Chorus 2:
G|-------------------------------------------------------------------
D|-------------------------------------------------------------------
A|-2-2-2-2-2-2-2-2--2-2-2-2-2-2-2-2----------------------------------
E|----------------------------------0-0-0-0-0-0-0-0--0-0-0-0-0-0-0-0-

G|------------------------------------------------------------------
D|------------------------------------------------------------------
A|-4-4-4-4-4-4-4-4--4-4-4-4-4-4-4-4-----------------2-2-2-2-2-2-2-2-
E|----------------------------------2-2-2-2-2-2-2-2-----------------

G|-----------------------------------------------------------------
D|-----------------------------------------------------------------
A|-2-2-2-2-2-2-2-2-------------------------------------------------
E|-----------------0-0-0-0-0-0-0-0--0-0-0-0-0-0-0--9-9-9-9-9-9-9-9-

                   (Break)
G|-------------------
D|-------------------
A|-----------------9-
E|-9-9-9-9-9-9-9-9---

Verse 3:
G|----16------------16----------------------------------------------
D|-16----14-16---16----14-16---16----14-16\-------------------------
A|--------------------------------14----------2/-7--9----2----------
E|------------------------------------------2----------2---0-0--2-2-

Pre-Chorus 3:
G|----------------------------------------------------------------
D|---6-------------------------6-----------------------6---4-/-9\-
A|-7----9--9-9-9-9-9-9-9-9---7----9--9-9-9-9-9-9-9-9--------------
E|----------------------------------------------------------------

Chorus 3:
G|-------------------------------------------------------------------
D|-------------------------------------------------------------------
A|-2-2-2-2-2-2-2-2--2-2-2-2-2-2-2-2----------------------------------
E|----------------------------------0-0-0-0-0-0-0-0--0-0-0-0-0-0-0-0-

G|----------------------------------
D|----------------------------------
A|-4-4-4-4-4-4-4-4--4-4-4-4-4-4-4-4-
E|----------------------------------

Outro: (Key Change)
G|--------------------------------------------------------------------
D|--------------------------------------------------------------------
A|-5-5-5-5-5-5-5-5--5-5-5-5-5-5-5-5-----------------------------------
E|----------------------------------3-3-3-3-3-3-3-3--3-3-3-3-3-3-3-3/-

G|-------------------------------------------------------------------------
D|-------------------------------------------------------------------------
A|-7-7-7-7-7-7-7-7--7-7-7-7-7-7-7-7----------------------------------------
E|---------------------------------5-5-5-5-5-5-5-5/17-17-17-17-17-17-17-17-

Repeat Outro To Fade/End

            
            
Suggest correction
Creating personal tab
Creating personal tab
You can edit any tab online and save it as your Personal.

You can edit, replace or remove any tab part or add personal notes – all changes will be seen only by you.

Personal tabs can be accessed anytime from any device, even offline.
Learn more »
Give kudos to tab author, rate the tab!
1 2 3 4 5
comments
print report bad tab
guest
You may want to rate the tab now too:
select rating
Wanna post a correction for this tab? Suggest correction