Oops, an error
Loading. Please wait.
We have an official If I Could Turn Back Time tab made by UG professional guitarists. Check out the tab »
×
by Cher
277 views 21 this week
2 commentsread comments
1 2 3 4 5
1 last vote to show rating
add to favorites
×
Save as Personal and add changes to this tab that will be seen only by you. Learn more ›
×
You can save this tab as Personal to edit and correct it or add notes. All changes will be seen only by you. Learn more »
launch autoscroll
font size
0
reset
how to read this tab
guitar tuner
backing track
0:00
0:00
edit
Autoscroll
slow
fast
+/-
esc
set tempo
stop
Author
Difficulty
[Intro]

     pm                 Bsus B
e|--------------------------------------------------------------------------|
B|------------------------5-4-------------------------5-4-------------------|
G|------------------------4-4-------------------------4-4-------------------|
D|-4----------------------4-4---4---------------------4-4-------------------|
A|-2--2-2-2-2-2-2-2-2-2---------2--2-2-2-2-2-2-2-2-2------------------------|
E|--------------------------------------------------------------------------|
   E   pm            C#m   F#
e|---------------------4---2-----------------------------------------------|
B|-9-------------------5---2-----------------------------------------------|
G|-9-------------------6---3-----------------------------------------------|
D|-9-------------------6---4-----------------------------------------------|
A|-7--7-7-7-7--7-7-----4---4-----------------------------------------------|
E|-------------------------2-----------------------------------------------|


[Chorus]

           B           Bsus B           
If I could turn back time 
             E        Esus E
If I could find a way
         C#m                                      
I'd take back those words that hurt you 
      F#
And you'd stay

[Verse]

e|-------------------------------------------------------------------------|
B|-11-11-11---12-12---9-9-9---11-11-11-------------------------------------|
G|-11-11-11---11-11---9-9-9---11-11-11-------------------------------------|
D|-11-11-11---9--9----9-9-9---11-11-11-------------------------------------|
A|-9--9--9----9--9-------------9--9--9-------------------------------------|
E|-------------------------------------------------------------------------|


F#           B            E        F#                           
I don't know why I did the things I did 
F#           B            E         F#
I don't know why I said the things I said
F#            B             E      F#                 
Love's like a knife it can cut deep inside 
F#            B             E       F#
Words are like weapons, they wound sometimes

e|--------------------------------------------------------------------------|
B|-9--4--2------------------------------------------------------------------|
G|-9--4--3------------------------------------------------------------------|
D|-9--6--4------------------------------------------------------------------|
A|-7--6--4------------------------------------------------------------------|
E|-0--4--2------------------------------------------------------------------|

E G#m F#   

[Pre-Chorus]   
                          E   G#m  F#
I didn't really mean to hurt you 
                         E   
I didn't wanna see you go
E                     F#
I know I made you cry, but baby...

[Chorus]
           B           Bsus B          
If I could turn back time 
            E        Esus E
If I could find a way
         C#m                                          
I'd take back those words that had hurt you 
            F#
And you'd stay

           B            Bsus B              
If I could reach the stars 
               E        Esus E
I'd give them all to you
           C#m                                        
Then you'd love me, love me, love me
  F#
Like you used to do
B                 E         
If I could turn back time

[Verse]

F#           B            E        F#                          
My world was shattered I was torn apart 
F#           B            E        F#                          
Like someone took a knife and drove it deep in my heart
F#           B            E        F#                           
When you walked out that door I swore that I didn't care 
F#           B            E        F#
But I lost everything darling then and there

E G#m F#   

[Pre-Chorus]
   
                          E   G#m  F#
I didn't really mean to hurt you 
                         E   
I didn't wanna see you go
E                     F#
I know I made you cry, but baby...
                                E  G#m F#
Too strong to tell you I was sorry 
                            E                    
Too proud to tell you I was wrong
           C#m                   F#
And I know that I was blind, and darling

[Chorus]

           B           Bsus B          E       Esus E
If I could turn back time If I could find a way
         C#m                                          
I'd take back those words that had hurt you 
            F#
And you'd stay


F#                B       E                 F#
If I could turn back time (If I could turn back time)
          E  F#
Oh, baby  

E  G#m  F#

[Pre-Chorus]
                               E G#m F#
I didn't really mean to hurt you 
                       E
I didn't wanna see you go
           C#m
I know I made you cry, but oh

[Chorus]
          B             Bsus B            
If I could turn back time 
   E                 Esus E
If I could find a way
         C#m                           
I'd take back those words that hurt you
           D           Dsus D               
If I could reach the stars 
               G
I'd give them all to you
           Em                                 A
Then you'd love me, love me, like you used to do
           D                         G          Em  A 
If I could turn back time If I could find a way
           D
If I could turn back time




            
            
Suggest correction
Creating personal tab
Creating personal tab
You can edit any tab online and save it as your Personal.

You can edit, replace or remove any tab part or add personal notes – all changes will be seen only by you.

Personal tabs can be accessed anytime from any device, even offline.
Learn more »
Give kudos to tab author, rate the tab!
1 2 3 4 5
comments
print report bad tab
2 comments total.
+1 reply
the_purest_cinnamon_meme 10 May 02, 2017 01:49 PM

Thank you so much for creating this tab! Great work :)

guest
You may want to rate the tab now too:
select rating
Wanna post a correction for this tab? Suggest correction