Oops, an error
Loading. Please wait.

Want You Back Tab

version 2
version 2

Whole song

993 views 1 this week
1 commentread comment
1 2 3 4 5
x 3
add to favorites
launch autoscroll
font size
0
reset
how to read this tab
guitar tuner
Autoscroll
slow
fast
+/-
esc
set tempo
stop
Help us to improve Ultimate-Guitar.com Take our survey!
×
This is the way me and my friend played the acoustic version of Want U Back. It may or
may not be the way that Cher Lloyd plays it but it sounds good so deal with it XD The
song is the exact same chords the entire way through just with different strumming 
patterns so it's not hard to learn at all! Any corrections? Email me at 
tanner.drage@yahoo.com or
just leave a comment down below. Please rate and enjoy!


Intro:
e|-------------------------------------------|
B|--7-7---7--7--------------7-7---7--7---10\-|
G|--7-7---7--7--(Ooh yeah)--7-7---7--7---9\\-|
D|--7-7---7--7--------------7-7---7--7---7\\-|
A|--5-5---5--5--------------5-5---5--5-------|
E|-------------------------------------------|

---------------------------------|
--3-3---3--3-----3-3---3--3---5\-|
--4-4---4--4-----4-4---4--4---6\-|
--4-4---4--4-----4-4---4--4---7\-|
---------------------------------|
---------------------------------|

Verse: (Hey, you ain't never had much game) - Play this whole part 4x
|-------------------------------------------|
|--7-7---7--7--------------7-7---7--7---10\-|
|--7-7---7--7--------------7-7---7--7---9\\-|
|--7-7---7--7--------------7-7---7--7---7\\-|
|--5-5---5--5--------------5-5---5--5-------|
|-------------------------------------------|

---------------------------------|
--3-3---3--33----3-3---3--3---5\-|
--4-4---4--44----4-4---4--4---6\-|
--4-4---4--44----4-4---4--4---7\-|
---------------------------------|
---------------------------------|

Optional Verse Variation - I like to play the Verse this way:
|-------------------------------------------|
|--7-7---7--7--------------7-7---7--7---10\-|
|--7-7---7--7--------------7-7---7--7---9\\-|
|--7-7---7--7--------------7-7---7--7---7\\-|
|--5-5---5--5--------------5-5---5--5-------|
|-------------------------------------------|

---------------------------------|
--3-3---3--33----3-3---3--3---5\-|
--4-4---4--44----4-4---4--4---6\-|
--4-4---4--44----4-4---4--4---7\-| This whole part 2x
---------------------------------|
---------------------------------|

|-------------------------------------------|
|--7-7-xxxx-7-7-xxxx-7-7-xxxx-7-xxx-10\-xx--|
|--7-7-xxxx-7-7-xxxx-7-7-xxxx-7-xxx-9\\-xx--|
|--7-7-xxxx-7-7-xxxx-7-7-xxxx-7-xxx-7\\-xx--|
|--5-5-xxxx-5-5-xxxx-5-5-xxxx-5-xxx---------|
|-------------------------------------------|

--------------------------------------|
--3-3-xxxx-3-3-xxxx-3-3-xxxx-3-xxx-5\-|
--4-4-xxxx-4-4-xxxx-4-4-xxxx-4-xxx-6\-|
--4-4-xxxx-4-4-xxxx-4-4-xxxx-4-xxx-7\-|
--------------------------------------|
--------------------------------------|

|-------------------------------------------|
|--7-7-xxxx-7-7-xxxx-7-7-xxxx-7-xxx-10\-xx--|
|--7-7-xxxx-7-7-xxxx-7-7-xxxx-7-xxx-9\\-xx--|
|--7-7-xxxx-7-7-xxxx-7-7-xxxx-7-xxx-7\\-xx--|
|--5-5-xxxx-5-5-xxxx-5-5-xxxx-5-xxx---------|
|-------------------------------------------|

----------------------------------------------|
-3-3-xxxx-3-3-xxxx-3-xx-3-xx-33-xx-3-xx-33-xx-|
-4-4-xxxx-4-4-xxxx-4-xx-4-xx-44-xx-4-xx-44-xx-|
-4-4-xxxx-4-4-xxxx-4-xx-4-xx-44-xx-4-xx-44-xx-|
----------------------------------------------|
----------------------------------------------|

Chorus: (Boy, you can say anything you wanna) - This whole part 2x
|----------------------------------------------|
|------7~~~77~~~~-7~~~77~~~~-7~~~77~~~~-7~~~77-|
|------7~~~77~~~~-7~~~77~~~~-7~~~77~~~~-7~~~77-|
|------7~~~77~~~~-7~~~77~~~~-7~~~77~~~~-7~~~77-|
|--5-5-5~~-55-5-5-5~~-55-5-5-5~~-55-5-5-5~~-55-|
|----------------------------------------------|

---------------------------------------------|
-----3~~~33~~~~-3~~~33~~~~-3~~~33~~~~-3~~~xx-|
-----4~~~44~~~~-4~~~44~~~~-4~~~44~~~~-4~~~xx-|
-4-4-4~~-44-4-4-4~~-44-4-4-4~~-44-4-4-4~~-xx-|
---------------------------------------------|
---------------------------------------------|

Repeat Verse, Repeat Chorus

Bridge is the same as the Chorus

Repeat Verse but this time only play the whole part TWICE instead of 4 times
Repeat Chorus
Repeat Bridge and end on:
|------|
|-7~~~-|
|-7~~~-|
|-7~~~-|
|-5~~~-|
|------|


And you're done! Easy right?! Please rate and comment and I will see you later!
Suggest correction
Give kudos to tab author, rate the tab!
1 2 3 4 5
comments
print report bad tab
1 comment total.
0 reply
Audible Warfare 806 Feb 04, 2014 10:06 PM

Thanks to the ******* that rated this tab 1* and didn't leave a comment explaining why! :)

guest
You may want to rate the tab now too:
select rating
Wanna post a correction for this tab? Suggest correction