Oops, an error
Loading. Please wait.

Raw Real Bass Tab

version 2
version 2

Whole song

  • Adjusted it a bit to make it sound more like the s... Show more
13 views 1 this week
no commentswrite comment
1 2 3 4 5
2 more votes to show rating
add to favorites
launch autoscroll
font size
0
reset
guitar tuner
Autoscroll
slow
fast
+/-
esc
set tempo
stop
Help us to improve Ultimate-Guitar.com Take our survey!
×
Author
Difficulty
novice
About this tab version
Adjusted it a bit to make it sound more like the studio version (which if you listen carefully has slides in). Was this info helpful? Yes No
[Verse 1]

G|----------------------------|
D|----------------------------| 
A|----------------------------|
E|-0--0--0--0--0--0--0--0-----|(x2)

G|----------------------------|
D|----------------------------|
A|----------------------------|
E|-0--0--0--0--0--0--0/10-0---|


[Chorus]

G|-------------------------------------------------------------|
D|-------------------------------------------------------------|
A|-3-3-3-3-3-3-3-3-----------------5-5-5-5-5-5-5-5-5-----------|
E|-----------------3-3-3-3-3-3-3-3-------------------0-2-3-2-0-|

G|------------------------------------------------------|
D|------------------------------------------------------|
A|-3-3-3-3-3-3-3-3-----------------5-5-5-5-5-5-5-5-5-5--|
E|-----------------3-3-3-3-3-3-3-3----------------------|

G|---------------------------------------------------------------------------------------------------------|
D|---------------------------------------------------------------------------------------------------------|
A|-3-3-3-3-3-3-3-3----------------------------------5-5-5-5-5-5-5--3--3--3--3-3-3-3-3-3-3-3-3-3-5-5-5-5-6--|
E|----------------3-3-3-3-3-3-3-3---5-5-5-5-5-5-5-5--------------------------------------------------------|


[Verse 2]

G|---------------------------|
D|---------------------------|
A|---------------------------|
E|-0--0--0--0--0--0--0--0----|

G|---------------------------|
D|---------------------------|
A|---------------------------|
E|-0--0--0--0--0--0--0/10-0--|


[Chorus]

G|-------------------------------------------------------------|
D|-------------------------------------------------------------|
A|-3-3-3-3-3-3-3-3-----------------5-5-5-5-5-5-5-5-5-----------|
E|-----------------3-3-3-3-3-3-3-3-------------------0-2-3-2-0-|

G|------------------------------------------------------|
D|------------------------------------------------------|
A|-3-3-3-3-3-3-3-3-----------------5-5-5-5-5-5-5-5-5-5--|
E|-----------------3-3-3-3-3-3-3-3----------------------|

G|---------------------------------------------------------------------------------------------------------|
D|---------------------------------------------------------------------------------------------------------|
A|-3-3-3-3-3-3-3-3----------------------------------5-5-5-5-5-5-5--3--3--3--3-3-3-3-3-3-3-3-3-3-5-5-5-5-6--|
E|----------------3-3-3-3-3-3-3-3---5-5-5-5-5-5-5-5--------------------------------------------------------|


[Bridge] 

G|------------------------------------------------------------------|
D|------------------------------------------------------------------| 
A|-----------------3-3-3-3-3-3-3-3----------------------------------|
E|-0-0-0-0-0-0-0-0-----------------3-3-3-3-3-3-3-3--2-2-2-2-2-2-2-2-|(x3)
                         
G|------------------------------------------------------------------|
D|------------------------------------------------------------------|   
A|-----------------3-3-3-3-3-3-3-3-----------------5-5-5-5-5-5-5-5--|
E|-0-0-0-0-0-0-0-0-----------------3-3-3-3-3-3-3-3------------------|

G|------------------------------------------------------------------|
D|------------------------------------------------------------------| 
A|-----------------3-3-3-3-3-3-3-3----------------------------------|
E|-0-0-0-0-0-0-0-0-----------------3-3-3-3-3-3-3-3--2-2-2-2-2-2-2-2-|(x3)
                         
G|------------------------------------------------------------------|
D|------------------------------------------------------------------|   
A|-----------------3-3-3-3-3-3-3-3-----------------5-5-5-5-5-5-5-5--|
E|-0-0-0-0-0-0-0-0-----------------3-3-3-3-3-3-3-3------------------|


[Pre-Chorus]

G|---------------------------------------------------|
D|---------------------------------------------------|
A|-----------------------------5-5-5-5-5-5-5--5-5/---|
E|-0--0-0-0--0-0-0--0-0-0--0-0-----------------------|


[Chorus]

G|-------------------------------------------------------------|
D|-------------------------------------------------------------|
A|-3-3-3-3-3-3-3-3-----------------5-5-5-5-5-5-5-5-5-----------|
E|-----------------3-3-3-3-3-3-3-3-------------------0-2-3-2-0-|

G|------------------------------------------------------|
D|------------------------------------------------------|
A|-3-3-3-3-3-3-3-3-----------------5-5-5-5-5-5-5-5-5-5--|
E|-----------------3-3-3-3-3-3-3-3----------------------|

G|-----------------------------------------------------------------------------------------------------------|
D|-----------------------------------------------------------------------------------------------------------|
A|-3-3-3-3-3-3-3-3-----------------------------------5-5-5-5-5-5-5--3--3--3--3-3-3-3-3-3-3-3-3-3-5-5-5-5-----|
E|-----------------3-3-3-3-3-3-3-3---5-5-5-5-5-5-5-5-----------------------------------------------------12--|


[Outro]

G|--------------------|
D|--------------------|
A|-12/-12/-12/-12/-0--|
E|--------------------|


************************************

| /  Slide up

************************************
Suggest correction
Give kudos to tab author, rate the tab!
1 2 3 4 5
comments
print report bad tab
guest
You may want to rate the tab now too:
select rating
Wanna post a correction for this tab? Suggest correction