Oops, an error
Loading. Please wait.

Sacrificial Lamb Tab

version 3
version 3

Whole song

220 views 3 this week
no commentswrite comment
1 2 3 4 5
accurate
x 1
add to favorites
launch autoscroll
font size
0
reset
how to read this tab
guitar tuner
Tab Pro tools
  • play this tab
  • loop segment
  • change instrument
  • show fretboard
  • metronome
Autoscroll
slow
fast
+/-
esc
set tempo
stop
Contributor
Difficulty
Tuning
intermediate
D A D G B E
Sacrificial Lamb
Cherri Bomb
This Is The End Of Control (2012)

Tabbed by: renee-lx
On the ending of the chorus, Julia plays a chord 4 times which I haven't figured 
out so I used an alternate chord (7x5)
There's also some lead parts that I haven't figured out yet. Once I do, I will update this tab. 

Tuning: Drop D

v = vibrato
/ = slide up
b = bend

Main riff/Verse
E|--------------------------------------|
B|--------------------------------------|
G|--------------------------------------|   x8
D|--------------------------------------|
A|--------------------------------------| hold the bend while you are
D|-0-0-15-0-0-14-0-0-15-0-0-14-3b-3-3-3-| strumming 


Pre-Chorus
E|-------------------------------------------|
B|-1-1-1-1--3-3-3-3--9--9--9--9--9--9--9--9--|
G|-2-2-2-2--4-4-4-4--10-10-10-10-10-10-10-10-|  x3
D|-------------------------------------------|
A|-------------------------------------------|
D|-------------------------------------------|

E|-----------------------------------------------------|
B|-10-10-10-10-10--9--9--9--9--10-10-10-10-10-10-10-10-|
G|-11-11-11-11-11--10-10-10-10-11-11-11-11-11-11-11-11-|
D|-----------------------------------------------------|
A|-----------------------------------------------------|
D|-----------------------------------------------------|


Chorus
E|-----------------------------------|
B|-----------------------------------|
G|-----------------------------------|
D|-------------------3-3-3-7-7-7-10--|              
A|-----------------------------------|
D|--5-3-5-6-5-3-0--------------------|
                                                       

E|-----------------------------------|
B|-----------------------------------|
G|-----------------------------------|
D|-----------------------------------|
A|-------------------5-5-5-4-5-7-----|
D|-5-3-5-6-5-3-0---------------------|

E|-----------------------------------|
B|-----------------------------------|
G|-----------------------------------|
D|-------------------3-3-3-7-7-7-10--|              
A|-----------------------------------|
D|--5-3-5-6-5-3-0--------------------|                          

E|-----------------------------------|
B|-----------------------------------|
G|-----------------------------------|
D|-----------------------------------|
A|-------------------5-5-5-4-5-7-----|
D|-5-3-5-6-5-3-0---------------------|

E|----------------------|
B|----------------------|
G|------7-7-7-7---------|
D|------x-x-x-x---------|
A|------5-5-5-5---------|
D|----------------------|


Main riff/Verse
E|--------------------------------------|
B|--------------------------------------|
G|--------------------------------------|   x8
D|--------------------------------------|
A|--------------------------------------| hold the bend while you are
D|-0-0-15-0-0-14-0-0-15-0-0-14-3b-3-3-3-| strumming 


On the 6th time Julia plays:
E|----------------------------------------|
B|-18-17-18-17------18-17-----------------|
G|--------------12b--------14-16-17-16-14-|  x2
D|----------------------------------------|
A|----------------------------------------|
E|----------------------------------------|


Pre-Chorus
E|-------------------------------------------|
B|-1-1-1-1--3-3-3-3--9--9--9--9--9--9--9--9--|
G|-2-2-2-2--4-4-4-4--10-10-10-10-10-10-10-10-|  3x
D|-------------------------------------------|
A|-------------------------------------------|
D|-------------------------------------------|

E|-----------------------------------------------------|
B|-10-10-10-10-10--9--9--9--9--10-10-10-10-10-10-10-10-|
G|-11-11-11-11-11--10-10-10-10-11-11-11-11-11-11-11-11-|
D|-----------------------------------------------------|
A|-----------------------------------------------------|
D|-----------------------------------------------------|


Chorus
E|------------------------------------|
B|------------------------------------|
G|------------------------------------|
D|-------------------3-3-3-7-7-7-10---|              
A|------------------------------------|
D|--5-3-5-6-5-3-0---------------------|
                                                       
E|------------------------------------|
B|------------------------------------|
G|------------------------------------|
D|------------------------------------|
A|-------------------5-5-5-4-5-7------|
D|-5-3-5-6-5-3-0----------------------|

E|------------------------------------|
B|------------------------------------|
G|------------------------------------|
D|-------------------3-3-3-7-7-7-10---|              
A|------------------------------------|
D|--5-3-5-6-5-3-0---------------------|
                                                       
E|------------------------------------|
B|------------------------------------|
G|------------------------------------|
D|------------------------------------|
A|-------------------5-5-5-4-5-7------|
D|-5-3-5-6-5-3-0----------------------|

E|----------------------|
B|----------------------|
G|------7-7-7-7---------|
D|------x-x-x-x---------|
A|------5-5-5-5---------|
D|----------------------|

E|-------------------------------------|
B|-------------------------------------|
G|-------------------------------------|
D|-------------------3-3-3-2-2-2-0-----|
A|-------------------------------------|
D|-5-3-5-6-5-3-0-----------------------|


Bridge: Use a slide
E|-----------------------------------------------|
B|-----------------------------------------------|
G|-----------------------------------------------|    x5
D|-0-0-3-0-3//9v-0-0-3-0-3//12v-0-0-3-0-3//15v---|
A|-0-0-3-0-3//9v-0-0-3-0-3//12v-0-0-3-0-3//15v---|
D|-0-0-3-0-3//9v-0-0-3-0-3//12v-0-0-3-0-3//15v---|


Chorus
E|------------------------------------|
B|------------------------------------|
G|------------------------------------|
D|-------------------3-3-3-7-7-7-10---|              
A|------------------------------------|
D|--5-3-5-6-5-3-0---------------------|
                                                       
E|------------------------------------|
B|------------------------------------|
G|------------------------------------|
D|------------------------------------|
A|-------------------5-5-5-4-5-7------|
D|-5-3-5-6-5-3-0----------------------|

E|------------------------------------|
B|------------------------------------|
G|------------------------------------|
D|-------------------3-3-3-7-7-7-10---|              
A|------------------------------------|
D|--5-3-5-6-5-3-0---------------------|
                                                       
E|------------------------------------|
B|------------------------------------|
G|------------------------------------|
D|------------------------------------|
A|-------------------5-5-5-4-5-7------|
D|-5-3-5-6-5-3-0----------------------|

E|-----------------------|
B|-----------------------|
G|------7-7-7-7----------|
D|------x-x-x-x----------|
A|------5-5-5-5----------|
D|-----------------------|

E|-------------------------------------|
B|-------------------------------------|
G|-------------------------------------|
D|-------------------3-3-3-2-2-2-0-----|
A|-------------------------------------|
D|-5-3-5-6-5-3-0-----------------------|
comments
We did not receive enough feedback on this tab! Please rate:
print report bad tab
1 2 3 4 5
I want to post or [tab]
guest
You may want to rate the tab now too:
select rating
Please do not post tabs as comments. Select "correction" instead!