Oops, an error
Loading. Please wait.

Shake The Ground bass

4,133 views 18 this week
no commentswrite comment
1 2 3 4 5
x 8
add to favorites
×
Save as Personal and add changes to this tab that will be seen only by you. Learn more ›
×
You can save this tab as Personal to edit and correct it or add notes. All changes will be seen only by you. Learn more »
launch autoscroll
font size
0
reset
guitar tuner
edit
Autoscroll
slow
fast
+/-
esc
set tempo
stop
Author
Difficulty
Artist: Cherri Bomb
Song: Shake The Ground
Album: This Is The End Of Control
Tuning: Standard(E,A,D,G)

Hey guys, this my first tab ever. It's a pretty easy song to play.
I used videos & the guitar tabs to put this together.
I'v worked on it a lot so I think I have everything down.

Follow me on Twitter: @JORDANeMAY
Follow me on Tumblr: killing-rage.tumblr.com
Subcribe to me on Youtube: Jordan May

UPDATED**** 11/20/12

-----------------------------------------------------------------------------------
Intro

G|--------------------------------------| 
D|----4-------4------4---------2--------|  (x2)
A|---------------------2-0-2-3---3-2-0--|
E|--2---2-2-2---2-2---------------------|

Verse 

G|------------------------------------------------| 
D|--------------4-------4------4---------2--------|
A|-------------------------------2-0-2-3---3-2-0--|(x2)
E|--2~---2~---2---2-2-2---2-2---------------------|

Chorus

G|---------------------------------------------------------------| 
D|---------------------------------------------------------------| 
A|--5555555555555--0000000000000--777777777777--2222222222222--4-|(x2) 
E|---------------------------------------------------------------|
(The second time playing this don't play 4)

Intro (Again)

G|--------------------------------------| 
D|----4-------4------4---------2--------|  (x2)
A|---------------------2-0-2-3---3-2-0--|
E|--2---2-2-2---2-2---------------------|

Verse 

G|------------------------------------------------| 
D|--------------4-------4------4---------2--------|
A|-------------------------------2-0-2-3---4-3-0--|(x2)
E|--2~---2~---2---2-2-2---2-2---------------------|

Chorus

G|---------------------------------------------------------------| 
D|---------------------------------------------------------------| 
A|--5555555555555--0000000000000--777777777777--2222222222222--4-|(x2)
E|---------------------------------------------------------------|
(The second time playing this don't play 4)

Bridge

G|----------------------------------------------------------------| 
D|----------------------------------------------------------------|       
A|-----------------------------------------------------5--7777777-|
E|--2--5--7--8---7--5--2--22222222--2--5--7--8---7-(x3)-----------|

Chorus

G|---------------------------------------------------------------| 
D|---------------------------------------------------------------| 
A|--5555555555555--0000000000000--777777777777--2222222222222--4-|(x2)
E|---------------------------------------------------------------|
(The second time playing this don't play 4)

Outro 

G|------------------------|
D|------------------------|
A|------------------------|
E|--2--5--7--8---7--5--2~-|

            
            
Suggest correction
Creating personal tab
Creating personal tab
You can edit any tab online and save it as your Personal.

You can edit, replace or remove any tab part or add personal notes – all changes will be seen only by you.

Personal tabs can be accessed anytime from any device, even offline.
Learn more »
comments
print report bad tab
guest
You may want to rate the tab now too:
select rating
Wanna post a correction for this tab? Suggest correction